ISO-10303-21;
HEADER;
/* Generated by software containing ST-Developer
 * from STEP Tools, Inc. (www.steptools.com) 
 */
/* OPTION: using custom schema-name function */

FILE_DESCRIPTION(
/* description */ (''),
/* implementation_level */ '2;1');

FILE_NAME(
/* name */ 'SD203A-C45-12.25-34.5-16R5.stp',
/* time_stamp */ '2017-12-20T17:09:31+06:00',
/* author */ (''),
/* organization */ (''),
/* preprocessor_version */ 'ST-DEVELOPER v16',
/* originating_system */ 'SIEMENS PLM Software NX 11.0',
/* authorisation */ '');

FILE_SCHEMA (('AUTOMOTIVE_DESIGN { 1 0 10303 214 3 1 1 1 }'));
ENDSEC;

DATA;
#10=CONSTRUCTIVE_GEOMETRY_REPRESENTATION_RELATIONSHIP(
'supplemental geometry','',#32,#11);
#11=CONSTRUCTIVE_GEOMETRY_REPRESENTATION('supplemental geometry',(#176,
#177,#178),#291);
#12=PROPERTY_DEFINITION_REPRESENTATION(#16,#14);
#13=PROPERTY_DEFINITION_REPRESENTATION(#17,#15);
#14=REPRESENTATION('',(#18),#291);
#15=REPRESENTATION('',(#19),#291);
#16=PROPERTY_DEFINITION('pmi validation property','',#23);
#17=PROPERTY_DEFINITION('pmi validation property','',#23);
#18=VALUE_REPRESENTATION_ITEM('number of annotations',COUNT_MEASURE(0.));
#19=VALUE_REPRESENTATION_ITEM('number of views',COUNT_MEASURE(0.));
#20=SHAPE_REPRESENTATION_RELATIONSHIP('None',
'relationship between SD203A-C45-12.25-34.5-16R5-None and SD203A-C45-1
2.25-34.5-16R5-None',#32,#21);
#21=ADVANCED_BREP_SHAPE_REPRESENTATION(
'SD203A-C45-12.25-34.5-16R5-None',(#48,#49,#50),#291);
#22=SHAPE_DEFINITION_REPRESENTATION(#23,#32);
#23=PRODUCT_DEFINITION_SHAPE('','',#24);
#24=PRODUCT_DEFINITION(' ','',#26,#25);
#25=PRODUCT_DEFINITION_CONTEXT('part definition',#31,'design');
#26=PRODUCT_DEFINITION_FORMATION_WITH_SPECIFIED_SOURCE(' ',' ',#28,
 .NOT_KNOWN.);
#27=PRODUCT_RELATED_PRODUCT_CATEGORY('part','',(#28));
#28=PRODUCT('SD203A-C45-12.25-34.5-16R5','SD203A-C45-12.25-34.5-16R5',
' ',(#29));
#29=PRODUCT_CONTEXT(' ',#31,'mechanical');
#30=APPLICATION_PROTOCOL_DEFINITION('international standard',
'automotive_design',2010,#31);
#31=APPLICATION_CONTEXT(
'core data for automotive mechanical design processes');
#32=SHAPE_REPRESENTATION('SD203A-C45-12.25-34.5-16R5-None',(#175),#291);
#33=SURFACE_STYLE_USAGE(.BOTH.,#36);
#34=SURFACE_STYLE_USAGE(.BOTH.,#37);
#35=SURFACE_STYLE_USAGE(.BOTH.,#38);
#36=SURFACE_SIDE_STYLE('',(#39));
#37=SURFACE_SIDE_STYLE('',(#40));
#38=SURFACE_SIDE_STYLE('',(#41));
#39=SURFACE_STYLE_FILL_AREA(#42);
#40=SURFACE_STYLE_FILL_AREA(#43);
#41=SURFACE_STYLE_FILL_AREA(#44);
#42=FILL_AREA_STYLE('',(#45));
#43=FILL_AREA_STYLE('',(#46));
#44=FILL_AREA_STYLE('',(#47));
#45=FILL_AREA_STYLE_COLOUR('',#170);
#46=FILL_AREA_STYLE_COLOUR('',#171);
#47=FILL_AREA_STYLE_COLOUR('',#171);
#48=MANIFOLD_SOLID_BREP('CUT',#51);
#49=MANIFOLD_SOLID_BREP('NOCUT',#52);
#50=MANIFOLD_SOLID_BREP('NOCUT',#53);
#51=CLOSED_SHELL('',(#68,#69,#70));
#52=CLOSED_SHELL('',(#71,#72,#73,#74));
#53=CLOSED_SHELL('',(#75,#76,#77,#78));
#54=CONICAL_SURFACE('',#182,0.,69.999980365784);
#55=CONICAL_SURFACE('',#186,6.12500599999999,44.9999999999999);
#56=CONICAL_SURFACE('',#195,7.99999999999999,45.0001909866756);
#57=VERTEX_LOOP('',#129);
#58=PLANE('',#181);
#59=PLANE('',#184);
#60=PLANE('',#189);
#61=PLANE('',#191);
#62=PLANE('',#196);
#63=FACE_OUTER_BOUND('',#97,.T.);
#64=FACE_OUTER_BOUND('',#99,.T.);
#65=FACE_OUTER_BOUND('',#104,.T.);
#66=FACE_OUTER_BOUND('',#105,.T.);
#67=FACE_OUTER_BOUND('',#110,.T.);
#68=ADVANCED_FACE('',(#83,#84),#79,.T.);
#69=ADVANCED_FACE('',(#63),#58,.F.);
#70=ADVANCED_FACE('',(#85,#86),#54,.T.);
#71=ADVANCED_FACE('',(#64),#59,.T.);
#72=ADVANCED_FACE('',(#87,#88),#55,.T.);
#73=ADVANCED_FACE('',(#89,#90),#80,.T.);
#74=ADVANCED_FACE('',(#65),#60,.T.);
#75=ADVANCED_FACE('',(#66),#61,.T.);
#76=ADVANCED_FACE('',(#91,#92),#81,.T.);
#77=ADVANCED_FACE('',(#93,#94),#56,.T.);
#78=ADVANCED_FACE('',(#67),#62,.T.);
#79=CYLINDRICAL_SURFACE('',#180,6.12500975721107);
#80=CYLINDRICAL_SURFACE('',#188,8.);
#81=CYLINDRICAL_SURFACE('',#193,7.99999999999999);
#82=B_SPLINE_CURVE_WITH_KNOTS('',3,(#247,#248,#249,#250,#251,#252,#253,
#254,#255,#256,#257,#258,#259,#260,#261,#262,#263,#264),.UNSPECIFIED.,.T.,
 .F.,(2,2,2,2,2,2,2,2,2,2,2),(-0.125,0.,0.125,0.25,0.375,0.5,0.625,0.75,
0.875,1.,1.125),.UNSPECIFIED.);
#83=FACE_BOUND('',#95,.T.);
#84=FACE_BOUND('',#96,.T.);
#85=FACE_BOUND('',#98,.T.);
#86=FACE_BOUND('',#57,.T.);
#87=FACE_BOUND('',#100,.T.);
#88=FACE_BOUND('',#101,.T.);
#89=FACE_BOUND('',#102,.T.);
#90=FACE_BOUND('',#103,.T.);
#91=FACE_BOUND('',#106,.T.);
#92=FACE_BOUND('',#107,.T.);
#93=FACE_BOUND('',#108,.T.);
#94=FACE_BOUND('',#109,.T.);
#95=EDGE_LOOP('',(#111));
#96=EDGE_LOOP('',(#112));
#97=EDGE_LOOP('',(#113));
#98=EDGE_LOOP('',(#114));
#99=EDGE_LOOP('',(#115));
#100=EDGE_LOOP('',(#116));
#101=EDGE_LOOP('',(#117));
#102=EDGE_LOOP('',(#118));
#103=EDGE_LOOP('',(#119));
#104=EDGE_LOOP('',(#120));
#105=EDGE_LOOP('',(#121));
#106=EDGE_LOOP('',(#122));
#107=EDGE_LOOP('',(#123));
#108=EDGE_LOOP('',(#124));
#109=EDGE_LOOP('',(#125));
#110=EDGE_LOOP('',(#126));
#111=ORIENTED_EDGE('',*,*,#136,.F.);
#112=ORIENTED_EDGE('',*,*,#137,.F.);
#113=ORIENTED_EDGE('',*,*,#136,.T.);
#114=ORIENTED_EDGE('',*,*,#137,.T.);
#115=ORIENTED_EDGE('',*,*,#138,.T.);
#116=ORIENTED_EDGE('',*,*,#139,.T.);
#117=ORIENTED_EDGE('',*,*,#138,.F.);
#118=ORIENTED_EDGE('',*,*,#140,.T.);
#119=ORIENTED_EDGE('',*,*,#139,.F.);
#120=ORIENTED_EDGE('',*,*,#140,.F.);
#121=ORIENTED_EDGE('',*,*,#141,.T.);
#122=ORIENTED_EDGE('',*,*,#142,.T.);
#123=ORIENTED_EDGE('',*,*,#141,.F.);
#124=ORIENTED_EDGE('',*,*,#143,.T.);
#125=ORIENTED_EDGE('',*,*,#142,.F.);
#126=ORIENTED_EDGE('',*,*,#143,.F.);
#127=VERTEX_POINT('',#246);
#128=VERTEX_POINT('',#265);
#129=VERTEX_POINT('',#268);
#130=VERTEX_POINT('',#271);
#131=VERTEX_POINT('',#274);
#132=VERTEX_POINT('',#277);
#133=VERTEX_POINT('',#281);
#134=VERTEX_POINT('',#284);
#135=VERTEX_POINT('',#287);
#136=EDGE_CURVE('',#127,#127,#144,.T.);
#137=EDGE_CURVE('',#128,#128,#82,.T.);
#138=EDGE_CURVE('',#130,#130,#145,.T.);
#139=EDGE_CURVE('',#131,#131,#146,.T.);
#140=EDGE_CURVE('',#132,#132,#147,.T.);
#141=EDGE_CURVE('',#133,#133,#148,.T.);
#142=EDGE_CURVE('',#134,#134,#149,.T.);
#143=EDGE_CURVE('',#135,#135,#150,.T.);
#144=CIRCLE('',#179,6.12500599999984);
#145=CIRCLE('',#183,6.12500599999999);
#146=CIRCLE('',#185,8.00000000000001);
#147=CIRCLE('',#187,7.99999999999999);
#148=CIRCLE('',#190,7.99999999999999);
#149=CIRCLE('',#192,7.99999999999999);
#150=CIRCLE('',#194,6.20000099999995);
#151=PRESENTATION_LAYER_ASSIGNMENT('1','Layer 1',(#176,#177,#178,#50));
#152=PRESENTATION_LAYER_ASSIGNMENT('3','Layer 3',(#48));
#153=PRESENTATION_LAYER_ASSIGNMENT('2','Layer 2',(#49));
#154=STYLED_ITEM('',(#160),#176);
#155=STYLED_ITEM('',(#161),#177);
#156=STYLED_ITEM('',(#162),#178);
#157=STYLED_ITEM('',(#163),#48);
#158=STYLED_ITEM('',(#164),#49);
#159=STYLED_ITEM('',(#165),#50);
#160=PRESENTATION_STYLE_ASSIGNMENT((#166));
#161=PRESENTATION_STYLE_ASSIGNMENT((#167));
#162=PRESENTATION_STYLE_ASSIGNMENT((#168));
#163=PRESENTATION_STYLE_ASSIGNMENT((#33));
#164=PRESENTATION_STYLE_ASSIGNMENT((#34));
#165=PRESENTATION_STYLE_ASSIGNMENT((#35));
#166=CURVE_STYLE('',#172,POSITIVE_LENGTH_MEASURE(0.18),#169);
#167=CURVE_STYLE('',#173,POSITIVE_LENGTH_MEASURE(0.18),#169);
#168=CURVE_STYLE('',#174,POSITIVE_LENGTH_MEASURE(0.18),#169);
#169=COLOUR_RGB('Strong Stone',0.576470588235294,0.54508278019379,0.392156862745098);
#170=COLOUR_RGB('Light Gray',0.8,0.8,0.8);
#171=COLOUR_RGB('Medium Gray',0.490196078431373,0.490196078431373,0.490196078431373);
#172=DRAUGHTING_PRE_DEFINED_CURVE_FONT('continuous');
#173=DRAUGHTING_PRE_DEFINED_CURVE_FONT('continuous');
#174=DRAUGHTING_PRE_DEFINED_CURVE_FONT('continuous');
#175=AXIS2_PLACEMENT_3D('',#241,#197,#198);
#176=AXIS2_PLACEMENT_3D('MCS',#242,#199,#200);
#177=AXIS2_PLACEMENT_3D('CIP',#243,#201,#202);
#178=AXIS2_PLACEMENT_3D('PCS',#244,#203,#204);
#179=AXIS2_PLACEMENT_3D('',#245,#205,#206);
#180=AXIS2_PLACEMENT_3D('',#266,#207,#208);
#181=AXIS2_PLACEMENT_3D('',#267,#209,#210);
#182=AXIS2_PLACEMENT_3D('',#269,#211,#212);
#183=AXIS2_PLACEMENT_3D('',#270,#213,#214);
#184=AXIS2_PLACEMENT_3D('',#272,#215,#216);
#185=AXIS2_PLACEMENT_3D('',#273,#217,#218);
#186=AXIS2_PLACEMENT_3D('',#275,#219,#220);
#187=AXIS2_PLACEMENT_3D('',#276,#221,#222);
#188=AXIS2_PLACEMENT_3D('',#278,#223,#224);
#189=AXIS2_PLACEMENT_3D('',#279,#225,#226);
#190=AXIS2_PLACEMENT_3D('',#280,#227,#228);
#191=AXIS2_PLACEMENT_3D('',#282,#229,#230);
#192=AXIS2_PLACEMENT_3D('',#283,#231,#232);
#193=AXIS2_PLACEMENT_3D('',#285,#233,#234);
#194=AXIS2_PLACEMENT_3D('',#286,#235,#236);
#195=AXIS2_PLACEMENT_3D('',#288,#237,#238);
#196=AXIS2_PLACEMENT_3D('',#289,#239,#240);
#197=DIRECTION('',(0.,0.,1.));
#198=DIRECTION('',(1.,0.,0.));
#199=DIRECTION('',(0.,0.,1.));
#200=DIRECTION('',(1.,0.,0.));
#201=DIRECTION('',(0.,0.,1.));
#202=DIRECTION('',(1.,0.,0.));
#203=DIRECTION('',(0.,0.,1.));
#204=DIRECTION('',(1.,0.,0.));
#205=DIRECTION('',(0.,2.17803072085392E-7,0.999999999999976));
#206=DIRECTION('',(0.,-0.999999999999976,2.17803072253027E-7));
#207=DIRECTION('',(0.,2.17803072085392E-7,0.999999999999976));
#208=DIRECTION('',(0.,0.999999999999976,-2.17803072327693E-7));
#209=DIRECTION('',(0.,-2.17803072085392E-7,-0.999999999999976));
#210=DIRECTION('',(0.,-0.999999999999976,2.17803072084799E-7));
#211=DIRECTION('',(0.,0.,1.));
#212=DIRECTION('',(1.,0.,1.01022141303502E-17));
#213=DIRECTION('',(0.,-3.20355799924776E-16,-1.));
#214=DIRECTION('',(0.,1.,0.));
#215=DIRECTION('',(0.,-3.20355799924776E-16,-1.));
#216=DIRECTION('',(0.,-1.,3.19189119579733E-16));
#217=DIRECTION('',(0.,-3.20355799924776E-16,-1.));
#218=DIRECTION('',(0.,1.,0.));
#219=DIRECTION('',(0.,3.20355799924776E-16,1.));
#220=DIRECTION('',(0.,1.,-3.03452682272285E-16));
#221=DIRECTION('',(0.,-3.20355799924776E-16,-1.));
#222=DIRECTION('',(0.,1.,-3.20355799924776E-16));
#223=DIRECTION('',(0.,-3.20355799924776E-16,-1.));
#224=DIRECTION('',(0.,-1.,3.20355799924776E-16));
#225=DIRECTION('',(0.,3.20355799924776E-16,1.));
#226=DIRECTION('',(0.,1.,-3.20355799924776E-16));
#227=DIRECTION('',(0.,0.,-1.));
#228=DIRECTION('',(-1.,0.,0.));
#229=DIRECTION('',(0.,0.,-1.));
#230=DIRECTION('',(1.,0.,0.));
#231=DIRECTION('',(0.,0.,-1.));
#232=DIRECTION('',(-1.,0.,0.));
#233=DIRECTION('',(0.,0.,-1.));
#234=DIRECTION('',(1.,0.,0.));
#235=DIRECTION('',(0.,0.,-1.));
#236=DIRECTION('',(-1.,0.,0.));
#237=DIRECTION('',(0.,0.,-1.));
#238=DIRECTION('',(1.,0.,4.13026667364499E-17));
#239=DIRECTION('',(0.,0.,1.));
#240=DIRECTION('',(-1.,0.,0.));
#241=CARTESIAN_POINT('',(0.,0.,0.));
#242=CARTESIAN_POINT('',(0.,0.,0.));
#243=CARTESIAN_POINT('',(0.,0.,-70.0000125441225));
#244=CARTESIAN_POINT('',(0.,0.,44.99999));
#245=CARTESIAN_POINT('',(0.,2.9055912637549E-13,-33.2696976659548));
#246=CARTESIAN_POINT('',(0.,-6.1250059999994,-33.2696963319097));
#247=CARTESIAN_POINT('',(-6.12500224278888,-1.60352183743054,-67.7706916659532));
#248=CARTESIAN_POINT('',(-6.12500224278888,1.60352183743055,-67.7706916659532));
#249=CARTESIAN_POINT('',(-5.46489178568668,3.19716945563097,-67.7706916659532));
#250=CARTESIAN_POINT('',(-3.19716945563098,5.46489178568668,-67.7706916659532));
#251=CARTESIAN_POINT('',(-1.60352183743054,6.12500224278888,-67.7706916659532));
#252=CARTESIAN_POINT('',(1.60352183743055,6.12500224278888,-67.7706916659532));
#253=CARTESIAN_POINT('',(3.19716945563099,5.46489178568668,-67.7706916659532));
#254=CARTESIAN_POINT('',(5.46489178568668,3.19716945563097,-67.7706916659532));
#255=CARTESIAN_POINT('',(6.12500224278888,1.60352183743054,-67.7706916659532));
#256=CARTESIAN_POINT('',(6.12500224278888,-1.60352183743055,-67.7706916659532));
#257=CARTESIAN_POINT('',(5.46489178568668,-3.19716945563098,-67.7706916659532));
#258=CARTESIAN_POINT('',(3.19716945563097,-5.46489178568668,-67.7706916659532));
#259=CARTESIAN_POINT('',(1.60352183743054,-6.12500224278888,-67.7706916659532));
#260=CARTESIAN_POINT('',(-1.60352183743055,-6.12500224278888,-67.7706916659532));
#261=CARTESIAN_POINT('',(-3.19716945563098,-5.46489178568668,-67.7706916659532));
#262=CARTESIAN_POINT('',(-5.46489178568668,-3.19716945563098,-67.7706916659532));
#263=CARTESIAN_POINT('',(-6.12500224278888,-1.60352183743054,-67.7706916659532));
#264=CARTESIAN_POINT('',(-6.12500224278888,1.60352183743055,-67.7706916659532));
#265=CARTESIAN_POINT('',(-6.12500599999767,4.61223448371188E-12,-67.770691665954));
#266=CARTESIAN_POINT('',(0.,-7.99997512856976E-6,-70.0000125441225));
#267=CARTESIAN_POINT('',(0.,6.12500599999984,-33.2696996670225));
#268=CARTESIAN_POINT('',(0.,0.,-70.0000125441225));
#269=CARTESIAN_POINT('',(0.,0.,-70.0000125441225));
#270=CARTESIAN_POINT('',(0.,-1.06581410364015E-14,-33.2696989999999));
#271=CARTESIAN_POINT('',(0.,6.12500599999998,-33.2696989999999));
#272=CARTESIAN_POINT('',(0.,3.14298063428934E-31,-33.2696989999999));
#273=CARTESIAN_POINT('',(0.,-1.00574758336773E-14,-31.3947049999999));
#274=CARTESIAN_POINT('',(0.,8.,-31.3947049999999));
#275=CARTESIAN_POINT('',(0.,-1.06581410364015E-14,-33.2696989999999));
#276=CARTESIAN_POINT('',(0.,8.21022708363544E-31,2.5628463993982E-15));
#277=CARTESIAN_POINT('',(0.,7.99999999999999,0.));
#278=CARTESIAN_POINT('',(0.,0.,0.));
#279=CARTESIAN_POINT('',(0.,7.99999999999999,-1.2814231996991E-15));
#280=CARTESIAN_POINT('',(0.,0.,0.));
#281=CARTESIAN_POINT('',(-7.99999999999999,0.,0.));
#282=CARTESIAN_POINT('',(0.,0.,0.));
#283=CARTESIAN_POINT('',(0.,0.,43.200003));
#284=CARTESIAN_POINT('',(-7.99999999999999,0.,43.200003));
#285=CARTESIAN_POINT('',(0.,0.,44.99999));
#286=CARTESIAN_POINT('',(0.,0.,44.99999));
#287=CARTESIAN_POINT('',(-6.20000099999995,0.,44.99999));
#288=CARTESIAN_POINT('',(0.,0.,43.200003));
#289=CARTESIAN_POINT('',(0.,6.20000099999995,44.99999));
#290=MECHANICAL_DESIGN_GEOMETRIC_PRESENTATION_REPRESENTATION('',(#154,#155,
#156,#157,#158,#159),#291);
#291=(
GEOMETRIC_REPRESENTATION_CONTEXT(3)
GLOBAL_UNCERTAINTY_ASSIGNED_CONTEXT((#292))
GLOBAL_UNIT_ASSIGNED_CONTEXT((#298,#294,#293))
REPRESENTATION_CONTEXT('SD203A-C45-12.25-34','TOP_LEVEL_ASSEMBLY_PART')
);
#292=UNCERTAINTY_MEASURE_WITH_UNIT(LENGTH_MEASURE(0.0508),#298,
'DISTANCE_ACCURACY_VALUE','Maximum Tolerance applied to model');
#293=(
NAMED_UNIT(*)
SI_UNIT($,.STERADIAN.)
SOLID_ANGLE_UNIT()
);
#294=(
CONVERSION_BASED_UNIT('DEGREE',#296)
NAMED_UNIT(#295)
PLANE_ANGLE_UNIT()
);
#295=DIMENSIONAL_EXPONENTS(0.,0.,0.,0.,0.,0.,0.);
#296=PLANE_ANGLE_MEASURE_WITH_UNIT(PLANE_ANGLE_MEASURE(0.0174532925),#297);
#297=(
NAMED_UNIT(*)
PLANE_ANGLE_UNIT()
SI_UNIT($,.RADIAN.)
);
#298=(
LENGTH_UNIT()
NAMED_UNIT(*)
SI_UNIT(.MILLI.,.METRE.)
);
ENDSEC;
END-ISO-10303-21;
