ISO-10303-21;
HEADER;
/* Generated by software containing ST-Developer
 * from STEP Tools, Inc. (www.steptools.com) 
 */
/* OPTION: using custom schema-name function */

FILE_DESCRIPTION(
/* description */ (''),
/* implementation_level */ '2;1');

FILE_NAME(
/* name */ 'SD203A-C45-10.2-30.0-14R1.stp',
/* time_stamp */ '2017-12-20T17:09:34+06:00',
/* author */ (''),
/* organization */ (''),
/* preprocessor_version */ 'ST-DEVELOPER v16',
/* originating_system */ 'SIEMENS PLM Software NX 11.0',
/* authorisation */ '');

FILE_SCHEMA (('AUTOMOTIVE_DESIGN { 1 0 10303 214 3 1 1 1 }'));
ENDSEC;

DATA;
#10=CONSTRUCTIVE_GEOMETRY_REPRESENTATION_RELATIONSHIP(
'supplemental geometry','',#32,#11);
#11=CONSTRUCTIVE_GEOMETRY_REPRESENTATION('supplemental geometry',(#176,
#177,#178),#291);
#12=PROPERTY_DEFINITION_REPRESENTATION(#16,#14);
#13=PROPERTY_DEFINITION_REPRESENTATION(#17,#15);
#14=REPRESENTATION('',(#18),#291);
#15=REPRESENTATION('',(#19),#291);
#16=PROPERTY_DEFINITION('pmi validation property','',#23);
#17=PROPERTY_DEFINITION('pmi validation property','',#23);
#18=VALUE_REPRESENTATION_ITEM('number of annotations',COUNT_MEASURE(0.));
#19=VALUE_REPRESENTATION_ITEM('number of views',COUNT_MEASURE(0.));
#20=SHAPE_REPRESENTATION_RELATIONSHIP('None',
'relationship between SD203A-C45-10.2-30.0-14R1-None and SD203A-C45-10.
2-30.0-14R1-None',#32,#21);
#21=ADVANCED_BREP_SHAPE_REPRESENTATION('SD203A-C45-10.2-30.0-14R1-None',
(#49,#50,#51),#291);
#22=SHAPE_DEFINITION_REPRESENTATION(#23,#32);
#23=PRODUCT_DEFINITION_SHAPE('','',#24);
#24=PRODUCT_DEFINITION(' ','',#26,#25);
#25=PRODUCT_DEFINITION_CONTEXT('part definition',#31,'design');
#26=PRODUCT_DEFINITION_FORMATION_WITH_SPECIFIED_SOURCE(' ',' ',#28,
 .NOT_KNOWN.);
#27=PRODUCT_RELATED_PRODUCT_CATEGORY('part','',(#28));
#28=PRODUCT('SD203A-C45-10.2-30.0-14R1','SD203A-C45-10.2-30.0-14R1',' ',
(#29));
#29=PRODUCT_CONTEXT(' ',#31,'mechanical');
#30=APPLICATION_PROTOCOL_DEFINITION('international standard',
'automotive_design',2010,#31);
#31=APPLICATION_CONTEXT(
'core data for automotive mechanical design processes');
#32=SHAPE_REPRESENTATION('SD203A-C45-10.2-30.0-14R1-None',(#175),#291);
#33=B_SPLINE_CURVE_WITH_KNOTS('',3,(#256,#257,#258,#259,#260,#261,#262,
#263,#264,#265,#266,#267,#268,#269,#270,#271,#272,#273),.UNSPECIFIED.,.T.,
 .F.,(2,2,2,2,2,2,2,2,2,2,2),(-0.125,0.,0.125,0.25,0.375,0.5,0.625,0.75,
0.875,1.,1.125),.UNSPECIFIED.);
#34=SURFACE_STYLE_USAGE(.BOTH.,#37);
#35=SURFACE_STYLE_USAGE(.BOTH.,#38);
#36=SURFACE_STYLE_USAGE(.BOTH.,#39);
#37=SURFACE_SIDE_STYLE('',(#40));
#38=SURFACE_SIDE_STYLE('',(#41));
#39=SURFACE_SIDE_STYLE('',(#42));
#40=SURFACE_STYLE_FILL_AREA(#43);
#41=SURFACE_STYLE_FILL_AREA(#44);
#42=SURFACE_STYLE_FILL_AREA(#45);
#43=FILL_AREA_STYLE('',(#46));
#44=FILL_AREA_STYLE('',(#47));
#45=FILL_AREA_STYLE('',(#48));
#46=FILL_AREA_STYLE_COLOUR('',#170);
#47=FILL_AREA_STYLE_COLOUR('',#171);
#48=FILL_AREA_STYLE_COLOUR('',#171);
#49=MANIFOLD_SOLID_BREP('CUT',#52);
#50=MANIFOLD_SOLID_BREP('NOCUT',#53);
#51=MANIFOLD_SOLID_BREP('NOCUT',#54);
#52=CLOSED_SHELL('',(#74,#75,#76));
#53=CLOSED_SHELL('',(#77,#78,#79,#80));
#54=CLOSED_SHELL('',(#81,#82,#83,#84));
#55=CONICAL_SURFACE('',#183,0.,69.9999379244447);
#56=CONICAL_SURFACE('',#186,6.99999818881481,45.0000036743322);
#57=CONICAL_SURFACE('',#193,5.200001,44.9999840845012);
#58=VERTEX_LOOP('',#129);
#59=CYLINDRICAL_SURFACE('',#182,5.10000221025029);
#60=CYLINDRICAL_SURFACE('',#188,6.99999999999999);
#61=CYLINDRICAL_SURFACE('',#195,6.99999999999999);
#62=FACE_BOUND('',#96,.T.);
#63=FACE_BOUND('',#97,.T.);
#64=FACE_BOUND('',#98,.T.);
#65=FACE_BOUND('',#58,.T.);
#66=FACE_BOUND('',#100,.T.);
#67=FACE_BOUND('',#101,.T.);
#68=FACE_BOUND('',#102,.T.);
#69=FACE_BOUND('',#103,.T.);
#70=FACE_BOUND('',#106,.T.);
#71=FACE_BOUND('',#107,.T.);
#72=FACE_BOUND('',#108,.T.);
#73=FACE_BOUND('',#109,.T.);
#74=ADVANCED_FACE('',(#90),#85,.F.);
#75=ADVANCED_FACE('',(#62,#63),#59,.T.);
#76=ADVANCED_FACE('',(#64,#65),#55,.T.);
#77=ADVANCED_FACE('',(#91),#86,.F.);
#78=ADVANCED_FACE('',(#66,#67),#56,.T.);
#79=ADVANCED_FACE('',(#68,#69),#60,.T.);
#80=ADVANCED_FACE('',(#92),#87,.T.);
#81=ADVANCED_FACE('',(#93),#88,.T.);
#82=ADVANCED_FACE('',(#70,#71),#57,.T.);
#83=ADVANCED_FACE('',(#72,#73),#61,.T.);
#84=ADVANCED_FACE('',(#94),#89,.F.);
#85=PLANE('',#180);
#86=PLANE('',#185);
#87=PLANE('',#189);
#88=PLANE('',#191);
#89=PLANE('',#196);
#90=FACE_OUTER_BOUND('',#95,.T.);
#91=FACE_OUTER_BOUND('',#99,.T.);
#92=FACE_OUTER_BOUND('',#104,.T.);
#93=FACE_OUTER_BOUND('',#105,.T.);
#94=FACE_OUTER_BOUND('',#110,.T.);
#95=EDGE_LOOP('',(#111));
#96=EDGE_LOOP('',(#112));
#97=EDGE_LOOP('',(#113));
#98=EDGE_LOOP('',(#114));
#99=EDGE_LOOP('',(#115));
#100=EDGE_LOOP('',(#116));
#101=EDGE_LOOP('',(#117));
#102=EDGE_LOOP('',(#118));
#103=EDGE_LOOP('',(#119));
#104=EDGE_LOOP('',(#120));
#105=EDGE_LOOP('',(#121));
#106=EDGE_LOOP('',(#122));
#107=EDGE_LOOP('',(#123));
#108=EDGE_LOOP('',(#124));
#109=EDGE_LOOP('',(#125));
#110=EDGE_LOOP('',(#126));
#111=ORIENTED_EDGE('',*,*,#136,.F.);
#112=ORIENTED_EDGE('',*,*,#137,.F.);
#113=ORIENTED_EDGE('',*,*,#136,.T.);
#114=ORIENTED_EDGE('',*,*,#137,.T.);
#115=ORIENTED_EDGE('',*,*,#138,.T.);
#116=ORIENTED_EDGE('',*,*,#138,.F.);
#117=ORIENTED_EDGE('',*,*,#139,.T.);
#118=ORIENTED_EDGE('',*,*,#139,.F.);
#119=ORIENTED_EDGE('',*,*,#140,.F.);
#120=ORIENTED_EDGE('',*,*,#140,.T.);
#121=ORIENTED_EDGE('',*,*,#141,.T.);
#122=ORIENTED_EDGE('',*,*,#142,.F.);
#123=ORIENTED_EDGE('',*,*,#141,.F.);
#124=ORIENTED_EDGE('',*,*,#143,.F.);
#125=ORIENTED_EDGE('',*,*,#142,.T.);
#126=ORIENTED_EDGE('',*,*,#143,.T.);
#127=VERTEX_POINT('',#246);
#128=VERTEX_POINT('',#249);
#129=VERTEX_POINT('',#251);
#130=VERTEX_POINT('',#254);
#131=VERTEX_POINT('',#274);
#132=VERTEX_POINT('',#277);
#133=VERTEX_POINT('',#281);
#134=VERTEX_POINT('',#284);
#135=VERTEX_POINT('',#287);
#136=EDGE_CURVE('',#127,#127,#144,.T.);
#137=EDGE_CURVE('',#128,#128,#145,.T.);
#138=EDGE_CURVE('',#130,#130,#146,.T.);
#139=EDGE_CURVE('',#131,#131,#33,.T.);
#140=EDGE_CURVE('',#132,#132,#147,.T.);
#141=EDGE_CURVE('',#133,#133,#148,.T.);
#142=EDGE_CURVE('',#134,#134,#149,.T.);
#143=EDGE_CURVE('',#135,#135,#150,.T.);
#144=CIRCLE('',#179,5.10000506696971);
#145=CIRCLE('',#181,5.09999935353196);
#146=CIRCLE('',#184,5.10000506696979);
#147=CIRCLE('',#187,6.99999999999999);
#148=CIRCLE('',#190,5.200001);
#149=CIRCLE('',#192,6.99999999999999);
#150=CIRCLE('',#194,6.99999999999999);
#151=PRESENTATION_LAYER_ASSIGNMENT('1','Layer 1',(#176,#177,#178,#51));
#152=PRESENTATION_LAYER_ASSIGNMENT('3','Layer 3',(#49));
#153=PRESENTATION_LAYER_ASSIGNMENT('2','Layer 2',(#50));
#154=STYLED_ITEM('',(#160),#176);
#155=STYLED_ITEM('',(#161),#177);
#156=STYLED_ITEM('',(#162),#178);
#157=STYLED_ITEM('',(#163),#49);
#158=STYLED_ITEM('',(#164),#50);
#159=STYLED_ITEM('',(#165),#51);
#160=PRESENTATION_STYLE_ASSIGNMENT((#166));
#161=PRESENTATION_STYLE_ASSIGNMENT((#167));
#162=PRESENTATION_STYLE_ASSIGNMENT((#168));
#163=PRESENTATION_STYLE_ASSIGNMENT((#34));
#164=PRESENTATION_STYLE_ASSIGNMENT((#35));
#165=PRESENTATION_STYLE_ASSIGNMENT((#36));
#166=CURVE_STYLE('',#172,POSITIVE_LENGTH_MEASURE(0.18),#169);
#167=CURVE_STYLE('',#173,POSITIVE_LENGTH_MEASURE(0.18),#169);
#168=CURVE_STYLE('',#174,POSITIVE_LENGTH_MEASURE(0.18),#169);
#169=COLOUR_RGB('Strong Stone',0.576470588235294,0.54508278019379,0.392156862745098);
#170=COLOUR_RGB('Light Gray',0.8,0.8,0.8);
#171=COLOUR_RGB('Medium Gray',0.490196078431373,0.490196078431373,0.490196078431373);
#172=DRAUGHTING_PRE_DEFINED_CURVE_FONT('continuous');
#173=DRAUGHTING_PRE_DEFINED_CURVE_FONT('continuous');
#174=DRAUGHTING_PRE_DEFINED_CURVE_FONT('continuous');
#175=AXIS2_PLACEMENT_3D('',#241,#197,#198);
#176=AXIS2_PLACEMENT_3D('MCS',#242,#199,#200);
#177=AXIS2_PLACEMENT_3D('CIP',#243,#201,#202);
#178=AXIS2_PLACEMENT_3D('PCS',#244,#203,#204);
#179=AXIS2_PLACEMENT_3D('',#245,#205,#206);
#180=AXIS2_PLACEMENT_3D('',#247,#207,#208);
#181=AXIS2_PLACEMENT_3D('',#248,#209,#210);
#182=AXIS2_PLACEMENT_3D('',#250,#211,#212);
#183=AXIS2_PLACEMENT_3D('',#252,#213,#214);
#184=AXIS2_PLACEMENT_3D('',#253,#215,#216);
#185=AXIS2_PLACEMENT_3D('',#255,#217,#218);
#186=AXIS2_PLACEMENT_3D('',#275,#219,#220);
#187=AXIS2_PLACEMENT_3D('',#276,#221,#222);
#188=AXIS2_PLACEMENT_3D('',#278,#223,#224);
#189=AXIS2_PLACEMENT_3D('',#279,#225,#226);
#190=AXIS2_PLACEMENT_3D('',#280,#227,#228);
#191=AXIS2_PLACEMENT_3D('',#282,#229,#230);
#192=AXIS2_PLACEMENT_3D('',#283,#231,#232);
#193=AXIS2_PLACEMENT_3D('',#285,#233,#234);
#194=AXIS2_PLACEMENT_3D('',#286,#235,#236);
#195=AXIS2_PLACEMENT_3D('',#288,#237,#238);
#196=AXIS2_PLACEMENT_3D('',#289,#239,#240);
#197=DIRECTION('',(0.,0.,1.));
#198=DIRECTION('',(1.,0.,0.));
#199=DIRECTION('',(0.,0.,1.));
#200=DIRECTION('',(1.,0.,0.));
#201=DIRECTION('',(0.,0.,1.));
#202=DIRECTION('',(1.,0.,0.));
#203=DIRECTION('',(0.,0.,1.));
#204=DIRECTION('',(1.,0.,0.));
#205=DIRECTION('',(0.,1.90441594445487E-7,-0.999999999999982));
#206=DIRECTION('',(0.,0.999999999999982,1.90441594186117E-7));
#207=DIRECTION('',(0.,1.90441594445487E-7,-0.999999999999982));
#208=DIRECTION('',(0.,-0.999999999999982,-1.90441594445645E-7));
#209=DIRECTION('',(0.,0.,-1.));
#210=DIRECTION('',(1.,0.,0.));
#211=DIRECTION('',(0.,1.90441594445487E-7,-0.999999999999982));
#212=DIRECTION('',(0.,-0.999999999999982,-1.90441594736014E-7));
#213=DIRECTION('',(0.,0.,1.));
#214=DIRECTION('',(1.,0.,7.57667806026762E-18));
#215=DIRECTION('',(0.,6.41291957678559E-8,-0.999999999999998));
#216=DIRECTION('',(0.,0.999999999999998,6.41291957868995E-8));
#217=DIRECTION('',(0.,-6.41291957678559E-8,0.999999999999998));
#218=DIRECTION('',(0.,0.999999999999998,6.41291957662049E-8));
#219=DIRECTION('',(0.,-6.41291957678559E-8,0.999999999999998));
#220=DIRECTION('',(0.,0.999999999999998,6.41291956636236E-8));
#221=DIRECTION('',(0.,0.,1.));
#222=DIRECTION('',(1.,0.,0.));
#223=DIRECTION('',(0.,0.,1.));
#224=DIRECTION('',(1.,0.,0.));
#225=DIRECTION('',(0.,0.,1.));
#226=DIRECTION('',(1.,0.,0.));
#227=DIRECTION('',(0.,0.,1.));
#228=DIRECTION('',(1.,0.,0.));
#229=DIRECTION('',(0.,0.,1.));
#230=DIRECTION('',(-1.,0.,0.));
#231=DIRECTION('',(0.,0.,-1.));
#232=DIRECTION('',(1.,0.,0.));
#233=DIRECTION('',(0.,0.,-1.));
#234=DIRECTION('',(1.,0.,-6.90300212097635E-18));
#235=DIRECTION('',(0.,0.,-1.));
#236=DIRECTION('',(1.,0.,0.));
#237=DIRECTION('',(0.,0.,1.));
#238=DIRECTION('',(1.,0.,0.));
#239=DIRECTION('',(0.,0.,1.));
#240=DIRECTION('',(1.,0.,0.));
#241=CARTESIAN_POINT('',(0.,0.,0.));
#242=CARTESIAN_POINT('',(0.,0.,0.));
#243=CARTESIAN_POINT('',(0.,0.,-62.0000075510956));
#244=CARTESIAN_POINT('',(0.,0.,45.0000004489044));
#245=CARTESIAN_POINT('',(0.,1.93303034401843E-6,-30.1427485223487));
#246=CARTESIAN_POINT('',(0.,5.10000699999996,-30.1427475510956));
#247=CARTESIAN_POINT('',(0.,6.40618197896939E-14,-30.1427480367224));
#248=CARTESIAN_POINT('',(0.,4.9779899212456E-6,-60.1437515223476));
#249=CARTESIAN_POINT('',(5.09999935353196,4.9779899212456E-6,-60.1437515223476));
#250=CARTESIAN_POINT('',(0.,1.93303015905144E-6,-30.1427475510956));
#251=CARTESIAN_POINT('',(0.,0.,-62.0000075510956));
#252=CARTESIAN_POINT('',(0.,0.,-62.0000075510956));
#253=CARTESIAN_POINT('',(0.,1.93303018002549E-6,-30.1427478781549));
#254=CARTESIAN_POINT('',(0.,5.10000699999996,-30.1427475510956));
#255=CARTESIAN_POINT('',(0.,5.10000699999995,-30.142747387566));
#256=CARTESIAN_POINT('',(-4.62103445509937,-5.57380782452125,-28.242752104088));
#257=CARTESIAN_POINT('',(-6.77123590054402,-2.56352442529683,-28.2427526899235));
#258=CARTESIAN_POINT('',(-7.20489814611138,-0.644446725764722,-28.2427530633981));
#259=CARTESIAN_POINT('',(-6.60345108975752,2.95301584543125,-28.2427537635057));
#260=CARTESIAN_POINT('',(-5.55929069342295,4.63118310462237,-28.2427540900965));
#261=CARTESIAN_POINT('',(-2.57915866129907,6.76028923659074,-28.2427545044451));
#262=CARTESIAN_POINT('',(-0.662346659154764,7.20738025330582,-28.2427545914542));
#263=CARTESIAN_POINT('',(2.96713857612333,6.60159994870311,-28.2427544735624));
#264=CARTESIAN_POINT('',(4.63539859671545,5.55335607271856,-28.242754269562));
#265=CARTESIAN_POINT('',(6.75598515823609,2.5852172756899,-28.2427536919279));
#266=CARTESIAN_POINT('',(7.2051710581267,0.65988560639268,-28.2427533172361));
#267=CARTESIAN_POINT('',(6.60603234044495,-2.95131762224713,-28.2427526144545));
#268=CARTESIAN_POINT('',(5.56908400403552,-4.62341710055709,-28.2427522890449));
#269=CARTESIAN_POINT('',(2.57323499049549,-6.7652896474148,-28.242751872212));
#270=CARTESIAN_POINT('',(0.653812027056478,-7.204184127365,-28.2427517867981));
#271=CARTESIAN_POINT('',(-2.94539897853302,-6.60699356477348,-28.2427519030182));
#272=CARTESIAN_POINT('',(-4.62103445509937,-5.57380782452125,-28.242752104088));
#273=CARTESIAN_POINT('',(-6.77123590054402,-2.56352442529683,-28.2427526899235));
#274=CARTESIAN_POINT('',(-5.69613517782169,-4.06866612490904,-28.2427523970057));
#275=CARTESIAN_POINT('',(0.,1.81118516478475E-6,-28.2427549999999));
#276=CARTESIAN_POINT('',(0.,-2.8421709430404E-14,0.));
#277=CARTESIAN_POINT('',(6.99999999999999,-2.8421709430404E-14,0.));
#278=CARTESIAN_POINT('',(0.,-2.8421709430404E-14,-664.083278495248));
#279=CARTESIAN_POINT('',(0.,0.,0.));
#280=CARTESIAN_POINT('',(0.,-2.8421709430404E-14,45.0000004489044));
#281=CARTESIAN_POINT('',(5.200001,-2.8421709430404E-14,45.0000004489044));
#282=CARTESIAN_POINT('',(0.,-3.90798504668055E-14,45.0000004489044));
#283=CARTESIAN_POINT('',(0.,-2.8421709430404E-14,43.2000004489044));
#284=CARTESIAN_POINT('',(6.99999999999999,-2.8421709430404E-14,43.2000004489044));
#285=CARTESIAN_POINT('',(0.,-2.8421709430404E-14,45.0000004489044));
#286=CARTESIAN_POINT('',(0.,-2.8421709430404E-14,0.));
#287=CARTESIAN_POINT('',(6.99999999999999,-2.8421709430404E-14,0.));
#288=CARTESIAN_POINT('',(0.,-2.8421709430404E-14,-664.083278495248));
#289=CARTESIAN_POINT('',(0.,0.,0.));
#290=MECHANICAL_DESIGN_GEOMETRIC_PRESENTATION_REPRESENTATION('',(#154,#155,
#156,#157,#158,#159),#291);
#291=(
GEOMETRIC_REPRESENTATION_CONTEXT(3)
GLOBAL_UNCERTAINTY_ASSIGNED_CONTEXT((#292))
GLOBAL_UNIT_ASSIGNED_CONTEXT((#298,#294,#293))
REPRESENTATION_CONTEXT('SD203A-C45-10.2-30','TOP_LEVEL_ASSEMBLY_PART')
);
#292=UNCERTAINTY_MEASURE_WITH_UNIT(LENGTH_MEASURE(0.0508),#298,
'DISTANCE_ACCURACY_VALUE','Maximum Tolerance applied to model');
#293=(
NAMED_UNIT(*)
SI_UNIT($,.STERADIAN.)
SOLID_ANGLE_UNIT()
);
#294=(
CONVERSION_BASED_UNIT('DEGREE',#296)
NAMED_UNIT(#295)
PLANE_ANGLE_UNIT()
);
#295=DIMENSIONAL_EXPONENTS(0.,0.,0.,0.,0.,0.,0.);
#296=PLANE_ANGLE_MEASURE_WITH_UNIT(PLANE_ANGLE_MEASURE(0.0174532925),#297);
#297=(
NAMED_UNIT(*)
PLANE_ANGLE_UNIT()
SI_UNIT($,.RADIAN.)
);
#298=(
LENGTH_UNIT()
NAMED_UNIT(*)
SI_UNIT(.MILLI.,.METRE.)
);
ENDSEC;
END-ISO-10303-21;
