ISO-10303-21;
HEADER;
FILE_DESCRIPTION((''),'2;1');
FILE_NAME('1MAD0800','2013-09-30T',('tlyq01'),('PTC Japan'),
'PRO/ENGINEER BY PARAMETRIC TECHNOLOGY CORPORATION, 2011180',
'PRO/ENGINEER BY PARAMETRIC TECHNOLOGY CORPORATION, 2011180','');
FILE_SCHEMA(('AUTOMOTIVE_DESIGN { 1 0 10303 214 1 1 1 1 }'));
ENDSEC;
DATA;
#7=CARTESIAN_POINT('',(0.E0,0.E0,0.E0));
#8=DIRECTION('',(0.E0,0.E0,1.E0));
#9=DIRECTION('',(1.E0,0.E0,0.E0));
#10=AXIS2_PLACEMENT_3D('',#7,#8,#9);
#12=CARTESIAN_POINT('',(0.E0,0.E0,0.E0));
#13=DIRECTION('',(0.E0,0.E0,1.E0));
#14=DIRECTION('',(-1.E0,0.E0,0.E0));
#15=AXIS2_PLACEMENT_3D('',#12,#13,#14);
#17=CARTESIAN_POINT('',(0.E0,0.E0,7.4E1));
#18=DIRECTION('',(0.E0,0.E0,1.E0));
#19=DIRECTION('',(1.E0,0.E0,0.E0));
#20=AXIS2_PLACEMENT_3D('',#17,#18,#19);
#22=DIRECTION('',(7.071067811866E-1,0.E0,-7.071067811865E-1));
#23=VECTOR('',#22,1.414213562373E0);
#24=CARTESIAN_POINT('',(3.E0,2.490329824159E-12,7.5E1));
#25=LINE('',#24,#23);
#26=CARTESIAN_POINT('',(0.E0,0.E0,7.5E1));
#27=DIRECTION('',(0.E0,0.E0,1.E0));
#28=DIRECTION('',(-1.E0,0.E0,0.E0));
#29=AXIS2_PLACEMENT_3D('',#26,#27,#28);
#31=CARTESIAN_POINT('',(0.E0,0.E0,7.5E1));
#32=DIRECTION('',(0.E0,0.E0,1.E0));
#33=DIRECTION('',(1.E0,0.E0,0.E0));
#34=AXIS2_PLACEMENT_3D('',#31,#32,#33);
#36=DIRECTION('',(-7.071067811866E-1,0.E0,-7.071067811865E-1));
#37=VECTOR('',#36,1.414213562373E0);
#38=CARTESIAN_POINT('',(-3.E0,-2.490230244234E-12,7.5E1));
#39=LINE('',#38,#37);
#40=CARTESIAN_POINT('',(0.E0,0.E0,7.4E1));
#41=DIRECTION('',(0.E0,0.E0,1.E0));
#42=DIRECTION('',(-1.E0,0.E0,0.E0));
#43=AXIS2_PLACEMENT_3D('',#40,#41,#42);
#45=DIRECTION('',(0.E0,-3.365807051620E-14,-1.E0));
#46=VECTOR('',#45,7.4E1);
#47=CARTESIAN_POINT('',(4.E0,2.490207359479E-12,7.4E1));
#48=LINE('',#47,#46);
#49=DIRECTION('',(0.E0,-3.365672484154E-14,1.E0));
#50=VECTOR('',#49,7.4E1);
#51=CARTESIAN_POINT('',(-4.E0,0.E0,0.E0));
#52=LINE('',#51,#50);
#53=CARTESIAN_POINT('',(4.E0,0.E0,0.E0));
#54=CARTESIAN_POINT('',(-4.E0,0.E0,0.E0));
#55=VERTEX_POINT('',#53);
#56=VERTEX_POINT('',#54);
#57=CARTESIAN_POINT('',(-3.E0,0.E0,7.5E1));
#58=CARTESIAN_POINT('',(3.E0,0.E0,7.5E1));
#59=VERTEX_POINT('',#57);
#60=VERTEX_POINT('',#58);
#61=CARTESIAN_POINT('',(-4.E0,0.E0,7.4E1));
#62=CARTESIAN_POINT('',(4.E0,0.E0,7.4E1));
#63=VERTEX_POINT('',#61);
#64=VERTEX_POINT('',#62);
#65=CARTESIAN_POINT('',(0.E0,0.E0,0.E0));
#66=DIRECTION('',(0.E0,0.E0,1.E0));
#67=DIRECTION('',(1.E0,0.E0,0.E0));
#68=AXIS2_PLACEMENT_3D('',#65,#66,#67);
#69=PLANE('',#68);
#71=ORIENTED_EDGE('',*,*,#70,.T.);
#73=ORIENTED_EDGE('',*,*,#72,.T.);
#74=EDGE_LOOP('',(#71,#73));
#75=FACE_OUTER_BOUND('',#74,.F.);
#77=CARTESIAN_POINT('',(0.E0,0.E0,0.E0));
#78=DIRECTION('',(0.E0,0.E0,1.E0));
#79=DIRECTION('',(1.E0,0.E0,0.E0));
#80=AXIS2_PLACEMENT_3D('',#77,#78,#79);
#81=CYLINDRICAL_SURFACE('',#80,4.E0);
#83=ORIENTED_EDGE('',*,*,#82,.T.);
#85=ORIENTED_EDGE('',*,*,#84,.F.);
#86=ORIENTED_EDGE('',*,*,#70,.F.);
#88=ORIENTED_EDGE('',*,*,#87,.F.);
#89=EDGE_LOOP('',(#83,#85,#86,#88));
#90=FACE_OUTER_BOUND('',#89,.F.);
#92=CARTESIAN_POINT('',(0.E0,0.E0,7.45E1));
#93=DIRECTION('',(0.E0,0.E0,-1.E0));
#94=DIRECTION('',(0.E0,-1.E0,0.E0));
#95=AXIS2_PLACEMENT_3D('',#92,#93,#94);
#96=CONICAL_SURFACE('',#95,3.5E0,4.5E1);
#98=ORIENTED_EDGE('',*,*,#97,.T.);
#100=ORIENTED_EDGE('',*,*,#99,.T.);
#101=ORIENTED_EDGE('',*,*,#82,.F.);
#103=ORIENTED_EDGE('',*,*,#102,.F.);
#104=EDGE_LOOP('',(#98,#100,#101,#103));
#105=FACE_OUTER_BOUND('',#104,.F.);
#107=CARTESIAN_POINT('',(0.E0,0.E0,7.5E1));
#108=DIRECTION('',(0.E0,0.E0,1.E0));
#109=DIRECTION('',(1.E0,0.E0,0.E0));
#110=AXIS2_PLACEMENT_3D('',#107,#108,#109);
#111=PLANE('',#110);
#113=ORIENTED_EDGE('',*,*,#112,.F.);
#114=ORIENTED_EDGE('',*,*,#97,.F.);
#115=EDGE_LOOP('',(#113,#114));
#116=FACE_OUTER_BOUND('',#115,.F.);
#118=CARTESIAN_POINT('',(0.E0,0.E0,7.45E1));
#119=DIRECTION('',(0.E0,0.E0,-1.E0));
#120=DIRECTION('',(0.E0,-1.E0,0.E0));
#121=AXIS2_PLACEMENT_3D('',#118,#119,#120);
#122=CONICAL_SURFACE('',#121,3.5E0,4.5E1);
#123=ORIENTED_EDGE('',*,*,#112,.T.);
#124=ORIENTED_EDGE('',*,*,#102,.T.);
#126=ORIENTED_EDGE('',*,*,#125,.F.);
#127=ORIENTED_EDGE('',*,*,#99,.F.);
#128=EDGE_LOOP('',(#123,#124,#126,#127));
#129=FACE_OUTER_BOUND('',#128,.F.);
#131=CARTESIAN_POINT('',(0.E0,0.E0,0.E0));
#132=DIRECTION('',(0.E0,0.E0,1.E0));
#133=DIRECTION('',(1.E0,0.E0,0.E0));
#134=AXIS2_PLACEMENT_3D('',#131,#132,#133);
#135=CYLINDRICAL_SURFACE('',#134,4.E0);
#136=ORIENTED_EDGE('',*,*,#125,.T.);
#137=ORIENTED_EDGE('',*,*,#87,.T.);
#138=ORIENTED_EDGE('',*,*,#72,.F.);
#139=ORIENTED_EDGE('',*,*,#84,.T.);
#140=EDGE_LOOP('',(#136,#137,#138,#139));
#141=FACE_OUTER_BOUND('',#140,.F.);
#143=CLOSED_SHELL('',(#76,#91,#106,#117,#130,#142));
#144=MANIFOLD_SOLID_BREP('',#143);
#147=PLANE_ANGLE_MEASURE_WITH_UNIT(PLANE_ANGLE_MEASURE(1.745329251994E-2),#146);
#148=(CONVERSION_BASED_UNIT('DEGREE',#147)NAMED_UNIT(*)PLANE_ANGLE_UNIT());
#150=UNCERTAINTY_MEASURE_WITH_UNIT(LENGTH_MEASURE(1.E-3),#145,
'distance_accuracy_value',
'Maximum model space distance between geometric entities at asserted connectivities');
#153=APPLICATION_CONTEXT('automotive_design');
#154=APPLICATION_PROTOCOL_DEFINITION('international standard',
'automotive_design',2001,#153);
#155=PRODUCT_DEFINITION_CONTEXT('part definition',#153,'design');
#156=PRODUCT_CONTEXT('',#153,'mechanical');
#157=PRODUCT('1MAD0800','1MAD0800','NOT SPECIFIED',(#156));
#158=PRODUCT_DEFINITION_FORMATION('6','LAST_VERSION',#157);
#166=DERIVED_UNIT_ELEMENT(#165,2.E0);
#167=DERIVED_UNIT((#166));
#168=MEASURE_REPRESENTATION_ITEM('surface area measure',AREA_MEASURE(
1.969462847833E3),#167);
#173=DERIVED_UNIT_ELEMENT(#172,3.E0);
#174=DERIVED_UNIT((#173));
#175=MEASURE_REPRESENTATION_ITEM('volume measure',VOLUME_MEASURE(
3.758392011252E3),#174);
#179=CARTESIAN_POINT('centre point',(0.E0,0.E0,3.738611033720E1));
#184=DERIVED_UNIT_ELEMENT(#183,2.E0);
#185=DERIVED_UNIT((#184));
#186=MEASURE_REPRESENTATION_ITEM('surface area measure',AREA_MEASURE(
1.969462847833E3),#185);
#191=DERIVED_UNIT_ELEMENT(#190,3.E0);
#192=DERIVED_UNIT((#191));
#193=MEASURE_REPRESENTATION_ITEM('volume measure',VOLUME_MEASURE(
3.758392011252E3),#192);
#197=CARTESIAN_POINT('centre point',(0.E0,0.E0,3.738611033720E1));
#202=PRODUCT_RELATED_PRODUCT_CATEGORY('part','',(#157));
#204=GENERAL_PROPERTY('','DESCRIPTION','user defined attribute');
#205=GENERAL_PROPERTY_ASSOCIATION('user defined attribute','',#204,#203);
#206=DESCRIPTIVE_REPRESENTATION_ITEM('DESCRIPTION','');
#210=GENERAL_PROPERTY('','MODELED_BY','user defined attribute');
#211=GENERAL_PROPERTY_ASSOCIATION('user defined attribute','',#210,#209);
#212=DESCRIPTIVE_REPRESENTATION_ITEM('MODELED_BY','');
#1=DRAUGHTING_PRE_DEFINED_COLOUR('green');
#2=COLOUR_RGB('',3.92157E-1,3.92157E-1,3.92157E-1);
#3=COLOUR_RGB('',7.84314E-1,5.29412E-1,7.84314E-1);
#4=COLOUR_RGB('',8.784E-1,9.49E-1,1.E0);
#5=COLOUR_RGB('',1.E0,7.63913E-1,1.92109E-1);
#6=DRAUGHTING_PRE_DEFINED_COLOUR('white');
#11=CIRCLE('',#10,4.E0);
#16=CIRCLE('',#15,4.E0);
#21=CIRCLE('',#20,4.E0);
#30=CIRCLE('',#29,3.E0);
#35=CIRCLE('',#34,3.E0);
#44=CIRCLE('',#43,4.E0);
#70=EDGE_CURVE('',#55,#56,#11,.T.);
#72=EDGE_CURVE('',#56,#55,#16,.T.);
#76=ADVANCED_FACE('',(#75),#69,.F.);
#82=EDGE_CURVE('',#64,#63,#21,.T.);
#84=EDGE_CURVE('',#56,#63,#52,.T.);
#87=EDGE_CURVE('',#64,#55,#48,.T.);
#91=ADVANCED_FACE('',(#90),#81,.T.);
#97=EDGE_CURVE('',#60,#59,#35,.T.);
#99=EDGE_CURVE('',#59,#63,#39,.T.);
#102=EDGE_CURVE('',#60,#64,#25,.T.);
#106=ADVANCED_FACE('',(#105),#96,.T.);
#112=EDGE_CURVE('',#59,#60,#30,.T.);
#117=ADVANCED_FACE('',(#116),#111,.T.);
#125=EDGE_CURVE('',#63,#64,#44,.T.);
#130=ADVANCED_FACE('',(#129),#122,.T.);
#142=ADVANCED_FACE('',(#141),#135,.T.);
#145=(LENGTH_UNIT()NAMED_UNIT(*)SI_UNIT(.MILLI.,.METRE.));
#146=(NAMED_UNIT(*)PLANE_ANGLE_UNIT()SI_UNIT($,.RADIAN.));
#149=(NAMED_UNIT(*)SI_UNIT($,.STERADIAN.)SOLID_ANGLE_UNIT());
#151=(GEOMETRIC_REPRESENTATION_CONTEXT(3)GLOBAL_UNCERTAINTY_ASSIGNED_CONTEXT((
#150))GLOBAL_UNIT_ASSIGNED_CONTEXT((#145,#148,#149))REPRESENTATION_CONTEXT
('ID1','3'));
#152=ADVANCED_BREP_SHAPE_REPRESENTATION('',(#144),#151);
#159=PRODUCT_DEFINITION('part definition','',#158,#155);
#160=PRODUCT_DEFINITION_SHAPE('','SHAPE FOR 1MAD0800.',#159);
#161=SHAPE_ASPECT('','solid data associated with 1MAD0800',#160,.F.);
#162=PROPERTY_DEFINITION('',
'shape for solid data with which properties are associated',#161);
#163=SHAPE_REPRESENTATION('',(#144),#151);
#164=SHAPE_DEFINITION_REPRESENTATION(#162,#163);
#165=(LENGTH_UNIT()NAMED_UNIT(*)SI_UNIT(.MILLI.,.METRE.));
#169=PROPERTY_DEFINITION('geometric validation property','area of 1MAD0800',
#161);
#170=REPRESENTATION('surface area',(#168),#151);
#171=PROPERTY_DEFINITION_REPRESENTATION(#169,#170);
#172=(LENGTH_UNIT()NAMED_UNIT(*)SI_UNIT(.MILLI.,.METRE.));
#176=PROPERTY_DEFINITION('geometric validation property','volume of 1MAD0800',
#161);
#177=REPRESENTATION('volume',(#175),#151);
#178=PROPERTY_DEFINITION_REPRESENTATION(#176,#177);
#180=PROPERTY_DEFINITION('geometric validation property','centroid of 1MAD0800',
#161);
#181=REPRESENTATION('centroid',(#179),#151);
#182=PROPERTY_DEFINITION_REPRESENTATION(#180,#181);
#183=(LENGTH_UNIT()NAMED_UNIT(*)SI_UNIT(.MILLI.,.METRE.));
#187=PROPERTY_DEFINITION('geometric validation property','area of 1MAD0800',
#160);
#188=REPRESENTATION('surface area',(#186),#151);
#189=PROPERTY_DEFINITION_REPRESENTATION(#187,#188);
#190=(LENGTH_UNIT()NAMED_UNIT(*)SI_UNIT(.MILLI.,.METRE.));
#194=PROPERTY_DEFINITION('geometric validation property','volume of 1MAD0800',
#160);
#195=REPRESENTATION('volume',(#193),#151);
#196=PROPERTY_DEFINITION_REPRESENTATION(#194,#195);
#198=PROPERTY_DEFINITION('geometric validation property','centroid of 1MAD0800',
#160);
#199=REPRESENTATION('centroid',(#197),#151);
#200=PROPERTY_DEFINITION_REPRESENTATION(#198,#199);
#201=SHAPE_DEFINITION_REPRESENTATION(#160,#152);
#203=PROPERTY_DEFINITION('DESCRIPTION','user defined attribute',#159);
#207=REPRESENTATION('',(#206),#151);
#208=PROPERTY_DEFINITION_REPRESENTATION(#203,#207);
#209=PROPERTY_DEFINITION('MODELED_BY','user defined attribute',#159);
#213=REPRESENTATION('',(#212),#151);
#214=PROPERTY_DEFINITION_REPRESENTATION(#209,#213);
ENDSEC;
END-ISO-10303-21;
