ISO-10303-21;
HEADER;
FILE_DESCRIPTION((''),'2;1');
FILE_NAME('1LAD0400','2013-09-30T',('tlyq01'),('PTC Japan'),
'PRO/ENGINEER BY PARAMETRIC TECHNOLOGY CORPORATION, 2011180',
'PRO/ENGINEER BY PARAMETRIC TECHNOLOGY CORPORATION, 2011180','');
FILE_SCHEMA(('AUTOMOTIVE_DESIGN { 1 0 10303 214 1 1 1 1 }'));
ENDSEC;
DATA;
#7=CARTESIAN_POINT('',(0.E0,0.E0,0.E0));
#8=DIRECTION('',(0.E0,0.E0,1.E0));
#9=DIRECTION('',(1.E0,0.E0,0.E0));
#10=AXIS2_PLACEMENT_3D('',#7,#8,#9);
#12=CARTESIAN_POINT('',(0.E0,0.E0,0.E0));
#13=DIRECTION('',(0.E0,0.E0,1.E0));
#14=DIRECTION('',(-1.E0,0.E0,0.E0));
#15=AXIS2_PLACEMENT_3D('',#12,#13,#14);
#17=CARTESIAN_POINT('',(0.E0,0.E0,1.92E1));
#18=DIRECTION('',(0.E0,0.E0,1.E0));
#19=DIRECTION('',(1.E0,0.E0,0.E0));
#20=AXIS2_PLACEMENT_3D('',#17,#18,#19);
#22=DIRECTION('',(-3.420201433257E-1,0.E0,-9.396926207859E-1));
#23=VECTOR('',#22,5.847608800326E0);
#24=CARTESIAN_POINT('',(4.E0,0.E0,2.469495483891E1));
#25=LINE('',#24,#23);
#26=DIRECTION('',(3.420201433257E-1,0.E0,-9.396926207859E-1));
#27=VECTOR('',#26,5.847608800326E0);
#28=CARTESIAN_POINT('',(-4.E0,0.E0,2.469495483891E1));
#29=LINE('',#28,#27);
#30=CARTESIAN_POINT('',(0.E0,0.E0,1.92E1));
#31=DIRECTION('',(0.E0,0.E0,1.E0));
#32=DIRECTION('',(-1.E0,0.E0,0.E0));
#33=AXIS2_PLACEMENT_3D('',#30,#31,#32);
#35=DIRECTION('',(0.E0,0.E0,-1.E0));
#36=VECTOR('',#35,1.92E1);
#37=CARTESIAN_POINT('',(2.E0,0.E0,1.92E1));
#38=LINE('',#37,#36);
#39=DIRECTION('',(0.E0,0.E0,1.E0));
#40=VECTOR('',#39,1.92E1);
#41=CARTESIAN_POINT('',(-2.E0,0.E0,0.E0));
#42=LINE('',#41,#40);
#43=CARTESIAN_POINT('',(0.E0,0.E0,6.9E1));
#44=DIRECTION('',(0.E0,0.E0,1.E0));
#45=DIRECTION('',(-1.E0,0.E0,0.E0));
#46=AXIS2_PLACEMENT_3D('',#43,#44,#45);
#48=CARTESIAN_POINT('',(0.E0,0.E0,2.469495483891E1));
#49=DIRECTION('',(0.E0,0.E0,1.E0));
#50=DIRECTION('',(-1.E0,0.E0,0.E0));
#51=AXIS2_PLACEMENT_3D('',#48,#49,#50);
#53=DIRECTION('',(0.E0,-6.738719973948E-14,1.E0));
#54=VECTOR('',#53,4.430504516109E1);
#55=CARTESIAN_POINT('',(-4.E0,0.E0,2.469495483891E1));
#56=LINE('',#55,#54);
#57=DIRECTION('',(-7.071067811865E-1,0.E0,-7.071067811865E-1));
#58=VECTOR('',#57,1.414213562373E0);
#59=CARTESIAN_POINT('',(-3.E0,-2.986015483746E-12,7.E1));
#60=LINE('',#59,#58);
#61=CARTESIAN_POINT('',(0.E0,0.E0,7.E1));
#62=DIRECTION('',(0.E0,0.E0,1.E0));
#63=DIRECTION('',(-1.E0,0.E0,0.E0));
#64=AXIS2_PLACEMENT_3D('',#61,#62,#63);
#66=CARTESIAN_POINT('',(0.E0,0.E0,7.E1));
#67=DIRECTION('',(0.E0,0.E0,1.E0));
#68=DIRECTION('',(1.E0,0.E0,0.E0));
#69=AXIS2_PLACEMENT_3D('',#66,#67,#68);
#71=DIRECTION('',(7.071067811865E-1,0.E0,-7.071067811865E-1));
#72=VECTOR('',#71,1.414213562373E0);
#73=CARTESIAN_POINT('',(3.E0,2.986882105695E-12,7.E1));
#74=LINE('',#73,#72);
#75=CARTESIAN_POINT('',(0.E0,0.E0,6.9E1));
#76=DIRECTION('',(0.E0,0.E0,1.E0));
#77=DIRECTION('',(1.E0,0.E0,0.E0));
#78=AXIS2_PLACEMENT_3D('',#75,#76,#77);
#80=CARTESIAN_POINT('',(0.E0,0.E0,2.469495483891E1));
#81=DIRECTION('',(0.E0,0.E0,1.E0));
#82=DIRECTION('',(1.E0,0.E0,0.E0));
#83=AXIS2_PLACEMENT_3D('',#80,#81,#82);
#85=DIRECTION('',(0.E0,6.741359439471E-14,1.E0));
#86=VECTOR('',#85,4.430504516109E1);
#87=CARTESIAN_POINT('',(4.E0,0.E0,2.469495483891E1));
#88=LINE('',#87,#86);
#89=CARTESIAN_POINT('',(2.E0,0.E0,0.E0));
#90=CARTESIAN_POINT('',(-2.E0,0.E0,0.E0));
#91=VERTEX_POINT('',#89);
#92=VERTEX_POINT('',#90);
#93=CARTESIAN_POINT('',(2.E0,0.E0,1.92E1));
#94=CARTESIAN_POINT('',(-2.E0,0.E0,1.92E1));
#95=VERTEX_POINT('',#93);
#96=VERTEX_POINT('',#94);
#97=CARTESIAN_POINT('',(4.E0,0.E0,2.469495483891E1));
#98=CARTESIAN_POINT('',(-4.E0,0.E0,2.469495483891E1));
#99=VERTEX_POINT('',#97);
#100=VERTEX_POINT('',#98);
#101=CARTESIAN_POINT('',(-3.E0,0.E0,7.E1));
#102=CARTESIAN_POINT('',(3.E0,0.E0,7.E1));
#103=VERTEX_POINT('',#101);
#104=VERTEX_POINT('',#102);
#105=CARTESIAN_POINT('',(-4.E0,0.E0,6.9E1));
#106=CARTESIAN_POINT('',(4.E0,0.E0,6.9E1));
#107=VERTEX_POINT('',#105);
#108=VERTEX_POINT('',#106);
#109=CARTESIAN_POINT('',(0.E0,0.E0,0.E0));
#110=DIRECTION('',(0.E0,0.E0,1.E0));
#111=DIRECTION('',(1.E0,0.E0,0.E0));
#112=AXIS2_PLACEMENT_3D('',#109,#110,#111);
#113=PLANE('',#112);
#115=ORIENTED_EDGE('',*,*,#114,.T.);
#117=ORIENTED_EDGE('',*,*,#116,.T.);
#118=EDGE_LOOP('',(#115,#117));
#119=FACE_OUTER_BOUND('',#118,.F.);
#121=CARTESIAN_POINT('',(0.E0,0.E0,0.E0));
#122=DIRECTION('',(0.E0,0.E0,1.E0));
#123=DIRECTION('',(1.E0,0.E0,0.E0));
#124=AXIS2_PLACEMENT_3D('',#121,#122,#123);
#125=CYLINDRICAL_SURFACE('',#124,2.E0);
#127=ORIENTED_EDGE('',*,*,#126,.T.);
#129=ORIENTED_EDGE('',*,*,#128,.F.);
#130=ORIENTED_EDGE('',*,*,#114,.F.);
#132=ORIENTED_EDGE('',*,*,#131,.F.);
#133=EDGE_LOOP('',(#127,#129,#130,#132));
#134=FACE_OUTER_BOUND('',#133,.F.);
#136=CARTESIAN_POINT('',(0.E0,0.E0,2.194747741945E1));
#137=DIRECTION('',(0.E0,0.E0,1.E0));
#138=DIRECTION('',(-1.E0,0.E0,0.E0));
#139=AXIS2_PLACEMENT_3D('',#136,#137,#138);
#140=CONICAL_SURFACE('',#139,3.E0,2.E1);
#141=ORIENTED_EDGE('',*,*,#126,.F.);
#143=ORIENTED_EDGE('',*,*,#142,.F.);
#145=ORIENTED_EDGE('',*,*,#144,.T.);
#147=ORIENTED_EDGE('',*,*,#146,.T.);
#148=EDGE_LOOP('',(#141,#143,#145,#147));
#149=FACE_OUTER_BOUND('',#148,.F.);
#151=CARTESIAN_POINT('',(0.E0,0.E0,2.194747741945E1));
#152=DIRECTION('',(0.E0,0.E0,1.E0));
#153=DIRECTION('',(-1.E0,0.E0,0.E0));
#154=AXIS2_PLACEMENT_3D('',#151,#152,#153);
#155=CONICAL_SURFACE('',#154,3.E0,2.E1);
#157=ORIENTED_EDGE('',*,*,#156,.F.);
#158=ORIENTED_EDGE('',*,*,#146,.F.);
#160=ORIENTED_EDGE('',*,*,#159,.T.);
#161=ORIENTED_EDGE('',*,*,#142,.T.);
#162=EDGE_LOOP('',(#157,#158,#160,#161));
#163=FACE_OUTER_BOUND('',#162,.F.);
#165=CARTESIAN_POINT('',(0.E0,0.E0,0.E0));
#166=DIRECTION('',(0.E0,0.E0,1.E0));
#167=DIRECTION('',(1.E0,0.E0,0.E0));
#168=AXIS2_PLACEMENT_3D('',#165,#166,#167);
#169=CYLINDRICAL_SURFACE('',#168,2.E0);
#170=ORIENTED_EDGE('',*,*,#156,.T.);
#171=ORIENTED_EDGE('',*,*,#131,.T.);
#172=ORIENTED_EDGE('',*,*,#116,.F.);
#173=ORIENTED_EDGE('',*,*,#128,.T.);
#174=EDGE_LOOP('',(#170,#171,#172,#173));
#175=FACE_OUTER_BOUND('',#174,.F.);
#177=CARTESIAN_POINT('',(0.E0,0.E0,1.92E1));
#178=DIRECTION('',(0.E0,0.E0,1.E0));
#179=DIRECTION('',(1.E0,0.E0,0.E0));
#180=AXIS2_PLACEMENT_3D('',#177,#178,#179);
#181=CYLINDRICAL_SURFACE('',#180,4.E0);
#183=ORIENTED_EDGE('',*,*,#182,.T.);
#185=ORIENTED_EDGE('',*,*,#184,.F.);
#186=ORIENTED_EDGE('',*,*,#159,.F.);
#188=ORIENTED_EDGE('',*,*,#187,.T.);
#189=EDGE_LOOP('',(#183,#185,#186,#188));
#190=FACE_OUTER_BOUND('',#189,.F.);
#192=CARTESIAN_POINT('',(0.E0,0.E0,6.95E1));
#193=DIRECTION('',(0.E0,0.E0,-1.E0));
#194=DIRECTION('',(0.E0,-1.E0,0.E0));
#195=AXIS2_PLACEMENT_3D('',#192,#193,#194);
#196=CONICAL_SURFACE('',#195,3.5E0,4.5E1);
#198=ORIENTED_EDGE('',*,*,#197,.T.);
#200=ORIENTED_EDGE('',*,*,#199,.T.);
#201=ORIENTED_EDGE('',*,*,#182,.F.);
#203=ORIENTED_EDGE('',*,*,#202,.F.);
#204=EDGE_LOOP('',(#198,#200,#201,#203));
#205=FACE_OUTER_BOUND('',#204,.F.);
#207=CARTESIAN_POINT('',(0.E0,0.E0,7.E1));
#208=DIRECTION('',(0.E0,0.E0,1.E0));
#209=DIRECTION('',(1.E0,0.E0,0.E0));
#210=AXIS2_PLACEMENT_3D('',#207,#208,#209);
#211=PLANE('',#210);
#212=ORIENTED_EDGE('',*,*,#197,.F.);
#214=ORIENTED_EDGE('',*,*,#213,.F.);
#215=EDGE_LOOP('',(#212,#214));
#216=FACE_OUTER_BOUND('',#215,.F.);
#218=CARTESIAN_POINT('',(0.E0,0.E0,6.95E1));
#219=DIRECTION('',(0.E0,0.E0,-1.E0));
#220=DIRECTION('',(0.E0,-1.E0,0.E0));
#221=AXIS2_PLACEMENT_3D('',#218,#219,#220);
#222=CONICAL_SURFACE('',#221,3.5E0,4.5E1);
#223=ORIENTED_EDGE('',*,*,#213,.T.);
#224=ORIENTED_EDGE('',*,*,#202,.T.);
#226=ORIENTED_EDGE('',*,*,#225,.F.);
#227=ORIENTED_EDGE('',*,*,#199,.F.);
#228=EDGE_LOOP('',(#223,#224,#226,#227));
#229=FACE_OUTER_BOUND('',#228,.F.);
#231=CARTESIAN_POINT('',(0.E0,0.E0,1.92E1));
#232=DIRECTION('',(0.E0,0.E0,1.E0));
#233=DIRECTION('',(1.E0,0.E0,0.E0));
#234=AXIS2_PLACEMENT_3D('',#231,#232,#233);
#235=CYLINDRICAL_SURFACE('',#234,4.E0);
#236=ORIENTED_EDGE('',*,*,#225,.T.);
#237=ORIENTED_EDGE('',*,*,#187,.F.);
#238=ORIENTED_EDGE('',*,*,#144,.F.);
#239=ORIENTED_EDGE('',*,*,#184,.T.);
#240=EDGE_LOOP('',(#236,#237,#238,#239));
#241=FACE_OUTER_BOUND('',#240,.F.);
#243=CLOSED_SHELL('',(#120,#135,#150,#164,#176,#191,#206,#217,#230,#242));
#244=MANIFOLD_SOLID_BREP('',#243);
#247=PLANE_ANGLE_MEASURE_WITH_UNIT(PLANE_ANGLE_MEASURE(1.745329251994E-2),#246);
#248=(CONVERSION_BASED_UNIT('DEGREE',#247)NAMED_UNIT(*)PLANE_ANGLE_UNIT());
#250=UNCERTAINTY_MEASURE_WITH_UNIT(LENGTH_MEASURE(1.E-3),#245,
'distance_accuracy_value',
'Maximum model space distance between geometric entities at asserted connectivities');
#253=APPLICATION_CONTEXT('automotive_design');
#254=APPLICATION_PROTOCOL_DEFINITION('international standard',
'automotive_design',2001,#253);
#255=PRODUCT_DEFINITION_CONTEXT('part definition',#253,'design');
#256=PRODUCT_CONTEXT('',#253,'mechanical');
#257=PRODUCT('1LAD0400','1LAD0400','NOT SPECIFIED',(#256));
#258=PRODUCT_DEFINITION_FORMATION('3','LAST_VERSION',#257);
#266=DERIVED_UNIT_ELEMENT(#265,2.E0);
#267=DERIVED_UNIT((#266));
#268=MEASURE_REPRESENTATION_ITEM('surface area measure',AREA_MEASURE(
1.536947265110E3),#267);
#273=DERIVED_UNIT_ELEMENT(#272,3.E0);
#274=DERIVED_UNIT((#273));
#275=MEASURE_REPRESENTATION_ITEM('volume measure',VOLUME_MEASURE(
2.668155586554E3),#274);
#279=CARTESIAN_POINT('centre point',(0.E0,0.E0,4.233948247549E1));
#284=DERIVED_UNIT_ELEMENT(#283,2.E0);
#285=DERIVED_UNIT((#284));
#286=MEASURE_REPRESENTATION_ITEM('surface area measure',AREA_MEASURE(
1.536947265110E3),#285);
#291=DERIVED_UNIT_ELEMENT(#290,3.E0);
#292=DERIVED_UNIT((#291));
#293=MEASURE_REPRESENTATION_ITEM('volume measure',VOLUME_MEASURE(
2.668155586554E3),#292);
#297=CARTESIAN_POINT('centre point',(0.E0,0.E0,4.233948247549E1));
#302=PRODUCT_RELATED_PRODUCT_CATEGORY('part','',(#257));
#304=GENERAL_PROPERTY('','DESCRIPTION','user defined attribute');
#305=GENERAL_PROPERTY_ASSOCIATION('user defined attribute','',#304,#303);
#306=DESCRIPTIVE_REPRESENTATION_ITEM('DESCRIPTION','');
#310=GENERAL_PROPERTY('','MODELED_BY','user defined attribute');
#311=GENERAL_PROPERTY_ASSOCIATION('user defined attribute','',#310,#309);
#312=DESCRIPTIVE_REPRESENTATION_ITEM('MODELED_BY','');
#1=DRAUGHTING_PRE_DEFINED_COLOUR('green');
#2=COLOUR_RGB('',3.92157E-1,3.92157E-1,3.92157E-1);
#3=COLOUR_RGB('',7.84314E-1,5.29412E-1,7.84314E-1);
#4=COLOUR_RGB('',8.784E-1,9.49E-1,1.E0);
#5=COLOUR_RGB('',1.E0,7.63913E-1,1.92109E-1);
#6=DRAUGHTING_PRE_DEFINED_COLOUR('white');
#11=CIRCLE('',#10,2.E0);
#16=CIRCLE('',#15,2.E0);
#21=CIRCLE('',#20,2.E0);
#34=CIRCLE('',#33,2.E0);
#47=CIRCLE('',#46,4.E0);
#52=CIRCLE('',#51,4.E0);
#65=CIRCLE('',#64,3.E0);
#70=CIRCLE('',#69,3.E0);
#79=CIRCLE('',#78,4.E0);
#84=CIRCLE('',#83,4.E0);
#114=EDGE_CURVE('',#91,#92,#11,.T.);
#116=EDGE_CURVE('',#92,#91,#16,.T.);
#120=ADVANCED_FACE('',(#119),#113,.F.);
#126=EDGE_CURVE('',#95,#96,#21,.T.);
#128=EDGE_CURVE('',#92,#96,#42,.T.);
#131=EDGE_CURVE('',#95,#91,#38,.T.);
#135=ADVANCED_FACE('',(#134),#125,.T.);
#142=EDGE_CURVE('',#99,#95,#25,.T.);
#144=EDGE_CURVE('',#99,#100,#84,.T.);
#146=EDGE_CURVE('',#100,#96,#29,.T.);
#150=ADVANCED_FACE('',(#149),#140,.T.);
#156=EDGE_CURVE('',#96,#95,#34,.T.);
#159=EDGE_CURVE('',#100,#99,#52,.T.);
#164=ADVANCED_FACE('',(#163),#155,.T.);
#176=ADVANCED_FACE('',(#175),#169,.T.);
#182=EDGE_CURVE('',#107,#108,#47,.T.);
#184=EDGE_CURVE('',#99,#108,#88,.T.);
#187=EDGE_CURVE('',#100,#107,#56,.T.);
#191=ADVANCED_FACE('',(#190),#181,.T.);
#197=EDGE_CURVE('',#103,#104,#65,.T.);
#199=EDGE_CURVE('',#104,#108,#74,.T.);
#202=EDGE_CURVE('',#103,#107,#60,.T.);
#206=ADVANCED_FACE('',(#205),#196,.T.);
#213=EDGE_CURVE('',#104,#103,#70,.T.);
#217=ADVANCED_FACE('',(#216),#211,.T.);
#225=EDGE_CURVE('',#108,#107,#79,.T.);
#230=ADVANCED_FACE('',(#229),#222,.T.);
#242=ADVANCED_FACE('',(#241),#235,.T.);
#245=(LENGTH_UNIT()NAMED_UNIT(*)SI_UNIT(.MILLI.,.METRE.));
#246=(NAMED_UNIT(*)PLANE_ANGLE_UNIT()SI_UNIT($,.RADIAN.));
#249=(NAMED_UNIT(*)SI_UNIT($,.STERADIAN.)SOLID_ANGLE_UNIT());
#251=(GEOMETRIC_REPRESENTATION_CONTEXT(3)GLOBAL_UNCERTAINTY_ASSIGNED_CONTEXT((
#250))GLOBAL_UNIT_ASSIGNED_CONTEXT((#245,#248,#249))REPRESENTATION_CONTEXT
('ID1','3'));
#252=ADVANCED_BREP_SHAPE_REPRESENTATION('',(#244),#251);
#259=PRODUCT_DEFINITION('part definition','',#258,#255);
#260=PRODUCT_DEFINITION_SHAPE('','SHAPE FOR 1LAD0400.',#259);
#261=SHAPE_ASPECT('','solid data associated with 1LAD0400',#260,.F.);
#262=PROPERTY_DEFINITION('',
'shape for solid data with which properties are associated',#261);
#263=SHAPE_REPRESENTATION('',(#244),#251);
#264=SHAPE_DEFINITION_REPRESENTATION(#262,#263);
#265=(LENGTH_UNIT()NAMED_UNIT(*)SI_UNIT(.MILLI.,.METRE.));
#269=PROPERTY_DEFINITION('geometric validation property','area of 1LAD0400',
#261);
#270=REPRESENTATION('surface area',(#268),#251);
#271=PROPERTY_DEFINITION_REPRESENTATION(#269,#270);
#272=(LENGTH_UNIT()NAMED_UNIT(*)SI_UNIT(.MILLI.,.METRE.));
#276=PROPERTY_DEFINITION('geometric validation property','volume of 1LAD0400',
#261);
#277=REPRESENTATION('volume',(#275),#251);
#278=PROPERTY_DEFINITION_REPRESENTATION(#276,#277);
#280=PROPERTY_DEFINITION('geometric validation property','centroid of 1LAD0400',
#261);
#281=REPRESENTATION('centroid',(#279),#251);
#282=PROPERTY_DEFINITION_REPRESENTATION(#280,#281);
#283=(LENGTH_UNIT()NAMED_UNIT(*)SI_UNIT(.MILLI.,.METRE.));
#287=PROPERTY_DEFINITION('geometric validation property','area of 1LAD0400',
#260);
#288=REPRESENTATION('surface area',(#286),#251);
#289=PROPERTY_DEFINITION_REPRESENTATION(#287,#288);
#290=(LENGTH_UNIT()NAMED_UNIT(*)SI_UNIT(.MILLI.,.METRE.));
#294=PROPERTY_DEFINITION('geometric validation property','volume of 1LAD0400',
#260);
#295=REPRESENTATION('volume',(#293),#251);
#296=PROPERTY_DEFINITION_REPRESENTATION(#294,#295);
#298=PROPERTY_DEFINITION('geometric validation property','centroid of 1LAD0400',
#260);
#299=REPRESENTATION('centroid',(#297),#251);
#300=PROPERTY_DEFINITION_REPRESENTATION(#298,#299);
#301=SHAPE_DEFINITION_REPRESENTATION(#260,#252);
#303=PROPERTY_DEFINITION('DESCRIPTION','user defined attribute',#259);
#307=REPRESENTATION('',(#306),#251);
#308=PROPERTY_DEFINITION_REPRESENTATION(#303,#307);
#309=PROPERTY_DEFINITION('MODELED_BY','user defined attribute',#259);
#313=REPRESENTATION('',(#312),#251);
#314=PROPERTY_DEFINITION_REPRESENTATION(#309,#313);
ENDSEC;
END-ISO-10303-21;
