ISO-10303-21;
HEADER;
FILE_DESCRIPTION(('CATIA V5 STEP Exchange','CAx-IF Rec.Pracs.--- Model Styling and Organization---1.2---2011-12-15'),'2;1');

FILE_NAME('I:\\tae\\design\\total_development1\\ky_no\\STEP\\6153489 - TM-16.000-BL-B6_STPL.stp','2020-01-10T04:20:20+00:00',('none'),('none'),'CATIA Version 5 Release 21 SP 5 (IN-10)','CATIA V5 STEP AP214','none');

FILE_SCHEMA(('AUTOMOTIVE_DESIGN { 1 0 10303 214 1 1 1 1 }'));

ENDSEC;
DATA;
#5=PRODUCT('TM-16.000-BL-B6','','',(#2)) ;
#2=PRODUCT_CONTEXT(' ',#1,'mechanical') ;
#1=APPLICATION_CONTEXT('automotive design') ;
#10=PRODUCT_DEFINITION('',' ',#6,#3) ;
#3=PRODUCT_DEFINITION_CONTEXT('part definition',#1,' ') ;
#11=PRODUCT_DEFINITION_SHAPE(' ',' ',#10) ;
#533=MECHANICAL_DESIGN_GEOMETRIC_PRESENTATION_REPRESENTATION(' ',(#91,#114,#143,#172,#195,#208,#30,#294,#333,#366,#399,#424,#442,#474,#498,#514,#212),#17) ;
#20=SHAPE_REPRESENTATION(' ',(#19),#17) ;
#19=AXIS2_PLACEMENT_3D(' ',#18,$,$) ;
#35=AXIS2_PLACEMENT_3D('Cylinder Axis2P3D',#32,#33,#34) ;
#95=AXIS2_PLACEMENT_3D('Cylinder Axis2P3D',#92,#93,#94) ;
#99=AXIS2_PLACEMENT_3D('Circle Axis2P3D',#97,#98,$) ;
#104=AXIS2_PLACEMENT_3D('Circle Axis2P3D',#102,#103,$) ;
#118=AXIS2_PLACEMENT_3D('Plane Axis2P3D',#115,#116,#117) ;
#122=AXIS2_PLACEMENT_3D('Circle Axis2P3D',#120,#121,$) ;
#131=AXIS2_PLACEMENT_3D('Circle Axis2P3D',#129,#130,$) ;
#147=AXIS2_PLACEMENT_3D('Plane Axis2P3D',#144,#145,#146) ;
#151=AXIS2_PLACEMENT_3D('Circle Axis2P3D',#149,#150,$) ;
#160=AXIS2_PLACEMENT_3D('Circle Axis2P3D',#158,#159,$) ;
#176=AXIS2_PLACEMENT_3D('Cylinder Axis2P3D',#173,#174,#175) ;
#199=AXIS2_PLACEMENT_3D('Cylinder Axis2P3D',#196,#197,#198) ;
#217=AXIS2_PLACEMENT_3D('Cylinder Axis2P3D',#214,#215,#216) ;
#230=AXIS2_PLACEMENT_3D('Circle Axis2P3D',#228,#229,$) ;
#237=AXIS2_PLACEMENT_3D('Circle Axis2P3D',#235,#236,$) ;
#298=AXIS2_PLACEMENT_3D('Cylinder Axis2P3D',#295,#296,#297) ;
#302=AXIS2_PLACEMENT_3D('Circle Axis2P3D',#300,#301,$) ;
#309=AXIS2_PLACEMENT_3D('Circle Axis2P3D',#307,#308,$) ;
#316=AXIS2_PLACEMENT_3D('Circle Axis2P3D',#314,#315,$) ;
#321=AXIS2_PLACEMENT_3D('Circle Axis2P3D',#319,#320,$) ;
#337=AXIS2_PLACEMENT_3D('Plane Axis2P3D',#334,#335,#336) ;
#349=AXIS2_PLACEMENT_3D('Circle Axis2P3D',#347,#348,$) ;
#358=AXIS2_PLACEMENT_3D('Circle Axis2P3D',#356,#357,$) ;
#370=AXIS2_PLACEMENT_3D('Cone Axis2P3D',#367,#368,#369) ;
#389=AXIS2_PLACEMENT_3D('Circle Axis2P3D',#387,#388,$) ;
#403=AXIS2_PLACEMENT_3D('Cone Axis2P3D',#400,#401,#402) ;
#407=AXIS2_PLACEMENT_3D('Circle Axis2P3D',#405,#406,$) ;
#428=AXIS2_PLACEMENT_3D('Cone Axis2P3D',#425,#426,#427) ;
#432=AXIS2_PLACEMENT_3D('Circle Axis2P3D',#430,#431,$) ;
#446=AXIS2_PLACEMENT_3D('Cylinder Axis2P3D',#443,#444,#445) ;
#457=AXIS2_PLACEMENT_3D('Circle Axis2P3D',#455,#456,$) ;
#478=AXIS2_PLACEMENT_3D('Cylinder Axis2P3D',#475,#476,#477) ;
#502=AXIS2_PLACEMENT_3D('Plane Axis2P3D',#499,#500,#501) ;
#518=AXIS2_PLACEMENT_3D('Absolute Axis System',#515,#516,#517) ;
#524=AXIS2_PLACEMENT_3D('CIP',#521,#522,#523) ;
#528=AXIS2_PLACEMENT_3D('PCS',#525,#526,#527) ;
#532=AXIS2_PLACEMENT_3D('MCS',#529,#530,#531) ;
#18=CARTESIAN_POINT(' ',(0.,0.,0.)) ;
#32=CARTESIAN_POINT('Axis2P3D Location',(0.,0.,0.1)) ;
#37=CARTESIAN_POINT('Line Origine',(-2.10619814854,-1.15062129265,0.0999999996275)) ;
#41=CARTESIAN_POINT('Vertex',(-2.10619814768,-1.15062129311,12.5)) ;
#43=CARTESIAN_POINT('Vertex',(-2.10619814854,-1.15062129265,9.19999999963)) ;
#47=CARTESIAN_POINT('Control Point',(-2.10619814854,-1.15062129265,12.5)) ;
#48=CARTESIAN_POINT('Control Point',(-1.74471980853,-1.81230295569,12.5)) ;
#49=CARTESIAN_POINT('Control Point',(-1.12339968707,-2.33203240657,12.5000000001)) ;
#50=CARTESIAN_POINT('Control Point',(-0.314694245614,-2.56931304709,12.5000000001)) ;
#51=CARTESIAN_POINT('Control Point',(1.29257350482,-2.36603992999,12.5000000002)) ;
#52=CARTESIAN_POINT('Control Point',(2.33203240657,-1.12339968707,12.5000000003)) ;
#53=CARTESIAN_POINT('Control Point',(2.56931304709,-0.314694245614,12.5000000003)) ;
#54=CARTESIAN_POINT('Control Point',(2.46767648854,0.488939629605,12.5000000003)) ;
#55=CARTESIAN_POINT('Control Point',(2.10619814854,1.15062129265,12.5000000004)) ;
#56=CARTESIAN_POINT('Vertex',(2.10619814854,1.15062129265,12.5000000004)) ;
#59=CARTESIAN_POINT('Line Origine',(2.10619814854,1.15062129265,0.0999999996275)) ;
#63=CARTESIAN_POINT('Vertex',(2.1061981488,1.15062129311,9.2)) ;
#67=CARTESIAN_POINT('Control Point',(-2.10619814854,-1.15062129265,9.2)) ;
#68=CARTESIAN_POINT('Control Point',(-1.74471980853,-1.81230295569,9.19999999996)) ;
#69=CARTESIAN_POINT('Control Point',(-1.12339968707,-2.33203240657,9.19999999993)) ;
#70=CARTESIAN_POINT('Control Point',(-0.314694245614,-2.56931304709,9.19999999989)) ;
#71=CARTESIAN_POINT('Control Point',(1.29257350482,-2.36603992999,9.19999999981)) ;
#72=CARTESIAN_POINT('Control Point',(2.33203240657,-1.12339968707,9.19999999974)) ;
#73=CARTESIAN_POINT('Control Point',(2.56931304709,-0.314694245614,9.1999999997)) ;
#74=CARTESIAN_POINT('Control Point',(2.46767648854,0.488939629605,9.19999999966)) ;
#75=CARTESIAN_POINT('Control Point',(2.10619814854,1.15062129265,9.19999999963)) ;
#92=CARTESIAN_POINT('Axis2P3D Location',(0.,0.,0.1)) ;
#97=CARTESIAN_POINT('Axis2P3D Location',(0.,0.,12.5000000004)) ;
#102=CARTESIAN_POINT('Axis2P3D Location',(0.,0.,9.19999999963)) ;
#115=CARTESIAN_POINT('Axis2P3D Location',(4.8,0.,12.5)) ;
#120=CARTESIAN_POINT('Axis2P3D Location',(8.48654480023E-012,3.25417470748E-010,12.5)) ;
#124=CARTESIAN_POINT('Vertex',(4.21239629686,2.30124258623,12.5)) ;
#126=CARTESIAN_POINT('Vertex',(-4.21239629649,-2.30124258623,12.5)) ;
#129=CARTESIAN_POINT('Axis2P3D Location',(3.64042129775E-010,-3.25417470748E-010,12.5)) ;
#144=CARTESIAN_POINT('Axis2P3D Location',(0.,0.,9.2)) ;
#149=CARTESIAN_POINT('Axis2P3D Location',(-2.22044604925E-016,-4.4408920985E-016,9.2)) ;
#153=CARTESIAN_POINT('Vertex',(4.21239629707,2.3012425853,9.19999999925)) ;
#155=CARTESIAN_POINT('Vertex',(-4.2123962976,-2.30124258623,9.2)) ;
#158=CARTESIAN_POINT('Axis2P3D Location',(2.22044604925E-016,4.4408920985E-016,9.2)) ;
#173=CARTESIAN_POINT('Axis2P3D Location',(0.,0.,6.25)) ;
#178=CARTESIAN_POINT('Line Origine',(4.21239629707,2.3012425853,6.25)) ;
#183=CARTESIAN_POINT('Line Origine',(-4.21239629707,-2.3012425853,6.25)) ;
#196=CARTESIAN_POINT('Axis2P3D Location',(0.,0.,6.25)) ;
#214=CARTESIAN_POINT('Axis2P3D Location',(0.,0.,6.25)) ;
#219=CARTESIAN_POINT('Line Origine',(7.02066049512,3.83540430883,6.25)) ;
#223=CARTESIAN_POINT('Vertex',(7.02066049512,3.83540430883,9.19999999925)) ;
#225=CARTESIAN_POINT('Vertex',(7.02066049514,3.83540430884,1.06999999999)) ;
#228=CARTESIAN_POINT('Axis2P3D Location',(0.,0.,9.19999999925)) ;
#232=CARTESIAN_POINT('Vertex',(8.,-4.4408920985E-015,9.19999999925)) ;
#235=CARTESIAN_POINT('Axis2P3D Location',(0.,0.,9.19999999925)) ;
#239=CARTESIAN_POINT('Vertex',(3.10862446895E-015,-8.,9.19999999925)) ;
#243=CARTESIAN_POINT('Control Point',(-7.02066049512,-3.83540430883,9.2)) ;
#244=CARTESIAN_POINT('Control Point',(-5.9939262837,-5.7148286763,9.19999999981)) ;
#245=CARTESIAN_POINT('Control Point',(-4.290093857,-7.23222485345,9.19999999963)) ;
#246=CARTESIAN_POINT('Control Point',(-2.14159265359,-8.,9.19999999944)) ;
#247=CARTESIAN_POINT('Control Point',(-4.4408920985E-015,-8.,9.19999999925)) ;
#248=CARTESIAN_POINT('Vertex',(-7.02066049539,-3.83540430851,9.2)) ;
#251=CARTESIAN_POINT('Line Origine',(-7.02066049512,-3.83540430883,6.25)) ;
#255=CARTESIAN_POINT('Vertex',(-7.02066049512,-3.83540430883,1.0700000003)) ;
#259=CARTESIAN_POINT('Control Point',(-7.02066049512,-3.83540430883,1.07)) ;
#260=CARTESIAN_POINT('Control Point',(-5.99447677485,-5.71382100902,1.07000000003)) ;
#261=CARTESIAN_POINT('Control Point',(-4.34006703118,-7.24903626845,1.07000000005)) ;
#262=CARTESIAN_POINT('Control Point',(-2.20751467974,-8.15546366524,1.07000000008)) ;
#263=CARTESIAN_POINT('Control Point',(2.29942703447,-8.40707120803,1.07000000013)) ;
#264=CARTESIAN_POINT('Control Point',(6.05093335377,-5.89668671413,1.07000000018)) ;
#265=CARTESIAN_POINT('Control Point',(7.42530296482,-4.03107734198,1.0700000002)) ;
#266=CARTESIAN_POINT('Control Point',(8.06806820765,-1.86755929598,1.07000000023)) ;
#267=CARTESIAN_POINT('Control Point',(7.99538653598,0.27165076895,1.07000000025)) ;
#268=CARTESIAN_POINT('Vertex',(7.995386536,0.27165076895,1.06999999999)) ;
#272=CARTESIAN_POINT('Control Point',(7.99538653598,0.27165076895,1.07000000025)) ;
#273=CARTESIAN_POINT('Control Point',(7.95318675486,1.51369975385,1.07000000027)) ;
#274=CARTESIAN_POINT('Control Point',(7.61647409426,2.74477483119,1.07000000028)) ;
#275=CARTESIAN_POINT('Control Point',(7.02066049512,3.83540430883,1.0700000003)) ;
#295=CARTESIAN_POINT('Axis2P3D Location',(0.,0.,6.25)) ;
#300=CARTESIAN_POINT('Axis2P3D Location',(0.,0.,9.19999999925)) ;
#304=CARTESIAN_POINT('Vertex',(-8.,0.,9.19999999925)) ;
#307=CARTESIAN_POINT('Axis2P3D Location',(0.,0.,9.19999999925)) ;
#311=CARTESIAN_POINT('Vertex',(1.33226762955E-015,8.,9.19999999925)) ;
#314=CARTESIAN_POINT('Axis2P3D Location',(0.,0.,9.19999999925)) ;
#319=CARTESIAN_POINT('Axis2P3D Location',(0.,0.,1.0700000003)) ;
#334=CARTESIAN_POINT('Axis2P3D Location',(0.,0.,9.2)) ;
#347=CARTESIAN_POINT('Axis2P3D Location',(-1.11022302463E-016,-2.22044604925E-016,9.2)) ;
#351=CARTESIAN_POINT('Vertex',(2.10619814854,1.15062129265,9.19999999963)) ;
#353=CARTESIAN_POINT('Vertex',(-2.10619814854,-1.15062129265,9.19999999963)) ;
#356=CARTESIAN_POINT('Axis2P3D Location',(1.11022302463E-016,2.22044604925E-016,9.2)) ;
#367=CARTESIAN_POINT('Axis2P3D Location',(2.04729965451E-014,-2.13611749648E-014,-16.0860553641)) ;
#372=CARTESIAN_POINT('Line Origine',(211187.272486,7175.28598589,453137.807463)) ;
#376=CARTESIAN_POINT('Vertex',(7.49672507729,0.254708277415,-8.91020590643E-012)) ;
#380=CARTESIAN_POINT('Control Point',(-6.58279147052,-3.59619516249,-9.19808673672E-012)) ;
#381=CARTESIAN_POINT('Control Point',(-6.72874781206,-3.67593154461,0.356666666657)) ;
#382=CARTESIAN_POINT('Control Point',(-6.87470424886,-3.75566775235,0.713333333325)) ;
#383=CARTESIAN_POINT('Control Point',(-7.02066058846,-3.83540413801,1.06999999999)) ;
#384=CARTESIAN_POINT('Vertex',(-6.58279138301,-3.59619532266,-9.19797571441E-012)) ;
#387=CARTESIAN_POINT('Axis2P3D Location',(4.44089209822E-016,-1.33226762952E-015,-8.92086404747E-012)) ;
#400=CARTESIAN_POINT('Axis2P3D Location',(2.04729965451E-014,-2.13611749648E-014,-16.0860553641)) ;
#405=CARTESIAN_POINT('Axis2P3D Location',(4.44089209822E-016,-1.33226762952E-015,-8.91375862011E-012)) ;
#409=CARTESIAN_POINT('Vertex',(6.58279138301,3.59619532267,-8.91020590643E-012)) ;
#412=CARTESIAN_POINT('Line Origine',(185441.20842,101306.99388,453137.807463)) ;
#425=CARTESIAN_POINT('Axis2P3D Location',(1.98068627303E-014,-2.58170313606E-014,-16.0860553641)) ;
#430=CARTESIAN_POINT('Axis2P3D Location',(-2.22044604978E-016,8.8817841977E-016,-8.92441676115E-012)) ;
#443=CARTESIAN_POINT('Axis2P3D Location',(0.,0.,0.1)) ;
#448=CARTESIAN_POINT('Line Origine',(-2.10619814854,-1.15062129265,0.0999999996275)) ;
#452=CARTESIAN_POINT('Vertex',(-2.1061981488,-1.15062129311,0.)) ;
#455=CARTESIAN_POINT('Axis2P3D Location',(0.,0.,3.72529007642E-010)) ;
#459=CARTESIAN_POINT('Vertex',(2.1061981488,1.15062129311,0.)) ;
#462=CARTESIAN_POINT('Line Origine',(2.10619814854,1.15062129265,0.0999999996275)) ;
#475=CARTESIAN_POINT('Axis2P3D Location',(0.,0.,0.1)) ;
#481=CARTESIAN_POINT('Control Point',(-2.10619814854,-1.15062129265,3.60822483003E-016)) ;
#482=CARTESIAN_POINT('Control Point',(-1.74471980853,-1.81230295569,3.72532255044E-011)) ;
#483=CARTESIAN_POINT('Control Point',(-1.12339968707,-2.33203240657,7.45060901863E-011)) ;
#484=CARTESIAN_POINT('Control Point',(-0.314694245614,-2.56931304709,1.11758954868E-010)) ;
#485=CARTESIAN_POINT('Control Point',(1.29257350482,-2.36603992999,1.86264684232E-010)) ;
#486=CARTESIAN_POINT('Control Point',(2.33203240657,-1.12339968707,2.60770413596E-010)) ;
#487=CARTESIAN_POINT('Control Point',(2.56931304709,-0.314694245614,2.98023278278E-010)) ;
#488=CARTESIAN_POINT('Control Point',(2.46767648854,0.488939629605,3.3527614296E-010)) ;
#489=CARTESIAN_POINT('Control Point',(2.10619814854,1.15062129265,3.72529007642E-010)) ;
#499=CARTESIAN_POINT('Axis2P3D Location',(0.,0.,0.)) ;
#515=CARTESIAN_POINT('Axis2P3D Location',(0.,0.,0.)) ;
#521=CARTESIAN_POINT('Axis2P3D Location',(0.,0.,0.)) ;
#525=CARTESIAN_POINT('Axis2P3D Location',(0.,0.,9.2)) ;
#529=CARTESIAN_POINT('Axis2P3D Location',(0.,0.,9.2)) ;
#33=DIRECTION('Axis2P3D Direction',(0.,-0.,1.)) ;
#34=DIRECTION('Axis2P3D XDirection',(-0.87758256189,-0.479425538604,0.)) ;
#38=DIRECTION('Vector Direction',(0.,0.,1.)) ;
#60=DIRECTION('Vector Direction',(0.,0.,1.)) ;
#93=DIRECTION('Axis2P3D Direction',(0.,-0.,1.)) ;
#94=DIRECTION('Axis2P3D XDirection',(0.87758256189,0.479425538604,0.)) ;
#98=DIRECTION('Axis2P3D Direction',(0.,-0.,1.)) ;
#103=DIRECTION('Axis2P3D Direction',(0.,-0.,1.)) ;
#116=DIRECTION('Axis2P3D Direction',(0.,0.,1.)) ;
#117=DIRECTION('Axis2P3D XDirection',(1.,0.,0.)) ;
#121=DIRECTION('Axis2P3D Direction',(0.,0.,1.)) ;
#130=DIRECTION('Axis2P3D Direction',(0.,0.,1.)) ;
#145=DIRECTION('Axis2P3D Direction',(0.,0.,1.)) ;
#146=DIRECTION('Axis2P3D XDirection',(1.,0.,0.)) ;
#150=DIRECTION('Axis2P3D Direction',(0.,0.,1.)) ;
#159=DIRECTION('Axis2P3D Direction',(0.,0.,1.)) ;
#174=DIRECTION('Axis2P3D Direction',(0.,-0.,1.)) ;
#175=DIRECTION('Axis2P3D XDirection',(0.87758256189,0.479425538604,0.)) ;
#179=DIRECTION('Vector Direction',(0.,0.,1.)) ;
#184=DIRECTION('Vector Direction',(0.,0.,1.)) ;
#197=DIRECTION('Axis2P3D Direction',(0.,-0.,1.)) ;
#198=DIRECTION('Axis2P3D XDirection',(-0.87758256189,-0.479425538604,0.)) ;
#215=DIRECTION('Axis2P3D Direction',(0.,-0.,1.)) ;
#216=DIRECTION('Axis2P3D XDirection',(-0.87758256189,-0.479425538604,0.)) ;
#220=DIRECTION('Vector Direction',(0.,0.,1.)) ;
#229=DIRECTION('Axis2P3D Direction',(0.,-0.,1.)) ;
#236=DIRECTION('Axis2P3D Direction',(0.,-0.,1.)) ;
#252=DIRECTION('Vector Direction',(0.,0.,1.)) ;
#296=DIRECTION('Axis2P3D Direction',(0.,-0.,1.)) ;
#297=DIRECTION('Axis2P3D XDirection',(0.87758256189,0.479425538604,0.)) ;
#301=DIRECTION('Axis2P3D Direction',(0.,-0.,1.)) ;
#308=DIRECTION('Axis2P3D Direction',(0.,-0.,1.)) ;
#315=DIRECTION('Axis2P3D Direction',(0.,-0.,1.)) ;
#320=DIRECTION('Axis2P3D Direction',(0.,-0.,1.)) ;
#335=DIRECTION('Axis2P3D Direction',(0.,0.,1.)) ;
#336=DIRECTION('Axis2P3D XDirection',(1.,0.,0.)) ;
#348=DIRECTION('Axis2P3D Direction',(0.,0.,1.)) ;
#357=DIRECTION('Axis2P3D Direction',(0.,0.,1.)) ;
#368=DIRECTION('Axis2P3D Direction',(-1.24510993416E-015,1.24510993416E-015,1.)) ;
#369=DIRECTION('Axis2P3D XDirection',(-0.999423316997,-0.0339563461187,-1.32221817029E-015)) ;
#373=DIRECTION('Vector Direction',(0.422374544973,0.0143505719718,0.906307787036)) ;
#388=DIRECTION('Axis2P3D Direction',(-1.36514632502E-015,1.24103158501E-015,1.)) ;
#401=DIRECTION('Axis2P3D Direction',(-1.24510993416E-015,1.24510993416E-015,1.)) ;
#402=DIRECTION('Axis2P3D XDirection',(0.999423316997,0.0339563461187,1.32221817029E-015)) ;
#406=DIRECTION('Axis2P3D Direction',(-1.36514632502E-015,1.24103158501E-015,1.)) ;
#413=DIRECTION('Vector Direction',(0.37088241684,0.202613987759,0.906307787036)) ;
#426=DIRECTION('Axis2P3D Direction',(-1.24510993416E-015,1.66014657888E-015,1.)) ;
#427=DIRECTION('Axis2P3D XDirection',(0.87758256189,0.479425538604,4.40739390096E-016)) ;
#431=DIRECTION('Axis2P3D Direction',(-1.37145487425E-015,1.59112402353E-015,1.)) ;
#444=DIRECTION('Axis2P3D Direction',(0.,-0.,1.)) ;
#445=DIRECTION('Axis2P3D XDirection',(0.87758256189,0.479425538604,0.)) ;
#449=DIRECTION('Vector Direction',(0.,0.,1.)) ;
#456=DIRECTION('Axis2P3D Direction',(0.,-0.,1.)) ;
#463=DIRECTION('Vector Direction',(0.,0.,1.)) ;
#476=DIRECTION('Axis2P3D Direction',(0.,-0.,1.)) ;
#477=DIRECTION('Axis2P3D XDirection',(-0.87758256189,-0.479425538604,0.)) ;
#500=DIRECTION('Axis2P3D Direction',(0.,0.,1.)) ;
#501=DIRECTION('Axis2P3D XDirection',(1.,0.,0.)) ;
#516=DIRECTION('Axis2P3D Direction',(0.,0.,1.)) ;
#517=DIRECTION('Axis2P3D XDirection',(1.,0.,0.)) ;
#522=DIRECTION('Axis2P3D Direction',(0.,0.,1.)) ;
#523=DIRECTION('Axis2P3D XDirection',(1.,0.,0.)) ;
#526=DIRECTION('Axis2P3D Direction',(0.,0.,1.)) ;
#527=DIRECTION('Axis2P3D XDirection',(1.,0.,0.)) ;
#530=DIRECTION('Axis2P3D Direction',(0.,0.,1.)) ;
#531=DIRECTION('Axis2P3D XDirection',(1.,0.,0.)) ;
#8=PRODUCT_RELATED_PRODUCT_CATEGORY('part',$,(#5)) ;
#7=PRODUCT_CATEGORY('part','specification') ;
#30=STYLED_ITEM(' ',(#29),#22) ;
#212=STYLED_ITEM(' ',(#29),#211) ;
#29=PRESENTATION_STYLE_ASSIGNMENT((#28)) ;
#90=PRESENTATION_STYLE_ASSIGNMENT((#89)) ;
#293=PRESENTATION_STYLE_ASSIGNMENT((#292)) ;
#28=SURFACE_STYLE_USAGE(.BOTH.,#27) ;
#89=SURFACE_STYLE_USAGE(.BOTH.,#88) ;
#292=SURFACE_STYLE_USAGE(.BOTH.,#291) ;
#27=SURFACE_SIDE_STYLE(' ',(#26)) ;
#88=SURFACE_SIDE_STYLE(' ',(#87)) ;
#291=SURFACE_SIDE_STYLE(' ',(#290)) ;
#26=SURFACE_STYLE_FILL_AREA(#25) ;
#87=SURFACE_STYLE_FILL_AREA(#86) ;
#290=SURFACE_STYLE_FILL_AREA(#289) ;
#25=FILL_AREA_STYLE(' ',(#24)) ;
#86=FILL_AREA_STYLE(' ',(#85)) ;
#289=FILL_AREA_STYLE(' ',(#288)) ;
#24=FILL_AREA_STYLE_COLOUR(' ',#23) ;
#85=FILL_AREA_STYLE_COLOUR(' ',#84) ;
#288=FILL_AREA_STYLE_COLOUR(' ',#287) ;
#39=VECTOR('Line Direction',#38,1.) ;
#61=VECTOR('Line Direction',#60,1.) ;
#180=VECTOR('Line Direction',#179,1.) ;
#185=VECTOR('Line Direction',#184,1.) ;
#221=VECTOR('Line Direction',#220,1.) ;
#253=VECTOR('Line Direction',#252,1.) ;
#374=VECTOR('Line Direction',#373,1.) ;
#414=VECTOR('Line Direction',#413,1.) ;
#450=VECTOR('Line Direction',#449,1.) ;
#464=VECTOR('Line Direction',#463,1.) ;
#16=UNCERTAINTY_MEASURE_WITH_UNIT(LENGTH_MEASURE(0.005),#12,'distance_accuracy_value','CONFUSED CURVE UNCERTAINTY') ;
#210=SHAPE_REPRESENTATION_RELATIONSHIP(' ',' ',#20,#209) ;
#78=ORIENTED_EDGE('',*,*,#45,.F.) ;
#79=ORIENTED_EDGE('',*,*,#58,.T.) ;
#80=ORIENTED_EDGE('',*,*,#65,.T.) ;
#81=ORIENTED_EDGE('',*,*,#76,.F.) ;
#108=ORIENTED_EDGE('',*,*,#65,.F.) ;
#109=ORIENTED_EDGE('',*,*,#101,.T.) ;
#110=ORIENTED_EDGE('',*,*,#45,.T.) ;
#111=ORIENTED_EDGE('',*,*,#106,.F.) ;
#135=ORIENTED_EDGE('',*,*,#128,.T.) ;
#136=ORIENTED_EDGE('',*,*,#133,.T.) ;
#139=ORIENTED_EDGE('',*,*,#101,.F.) ;
#140=ORIENTED_EDGE('',*,*,#58,.F.) ;
#164=ORIENTED_EDGE('',*,*,#157,.F.) ;
#165=ORIENTED_EDGE('',*,*,#162,.F.) ;
#168=ORIENTED_EDGE('',*,*,#76,.T.) ;
#169=ORIENTED_EDGE('',*,*,#106,.T.) ;
#189=ORIENTED_EDGE('',*,*,#128,.F.) ;
#190=ORIENTED_EDGE('',*,*,#182,.T.) ;
#191=ORIENTED_EDGE('',*,*,#157,.T.) ;
#192=ORIENTED_EDGE('',*,*,#187,.F.) ;
#202=ORIENTED_EDGE('',*,*,#133,.F.) ;
#203=ORIENTED_EDGE('',*,*,#187,.T.) ;
#204=ORIENTED_EDGE('',*,*,#162,.T.) ;
#205=ORIENTED_EDGE('',*,*,#182,.F.) ;
#278=ORIENTED_EDGE('',*,*,#227,.F.) ;
#279=ORIENTED_EDGE('',*,*,#234,.F.) ;
#280=ORIENTED_EDGE('',*,*,#241,.F.) ;
#281=ORIENTED_EDGE('',*,*,#250,.F.) ;
#282=ORIENTED_EDGE('',*,*,#257,.T.) ;
#283=ORIENTED_EDGE('',*,*,#270,.T.) ;
#284=ORIENTED_EDGE('',*,*,#276,.T.) ;
#325=ORIENTED_EDGE('',*,*,#257,.F.) ;
#326=ORIENTED_EDGE('',*,*,#306,.F.) ;
#327=ORIENTED_EDGE('',*,*,#313,.F.) ;
#328=ORIENTED_EDGE('',*,*,#318,.F.) ;
#329=ORIENTED_EDGE('',*,*,#227,.T.) ;
#330=ORIENTED_EDGE('',*,*,#323,.T.) ;
#340=ORIENTED_EDGE('',*,*,#318,.T.) ;
#341=ORIENTED_EDGE('',*,*,#313,.T.) ;
#342=ORIENTED_EDGE('',*,*,#306,.T.) ;
#343=ORIENTED_EDGE('',*,*,#250,.T.) ;
#344=ORIENTED_EDGE('',*,*,#241,.T.) ;
#345=ORIENTED_EDGE('',*,*,#234,.T.) ;
#362=ORIENTED_EDGE('',*,*,#355,.F.) ;
#363=ORIENTED_EDGE('',*,*,#360,.F.) ;
#393=ORIENTED_EDGE('',*,*,#378,.T.) ;
#394=ORIENTED_EDGE('',*,*,#270,.F.) ;
#395=ORIENTED_EDGE('',*,*,#386,.T.) ;
#396=ORIENTED_EDGE('',*,*,#391,.T.) ;
#418=ORIENTED_EDGE('',*,*,#378,.F.) ;
#419=ORIENTED_EDGE('',*,*,#411,.T.) ;
#420=ORIENTED_EDGE('',*,*,#416,.F.) ;
#421=ORIENTED_EDGE('',*,*,#276,.F.) ;
#436=ORIENTED_EDGE('',*,*,#416,.T.) ;
#437=ORIENTED_EDGE('',*,*,#434,.T.) ;
#438=ORIENTED_EDGE('',*,*,#386,.F.) ;
#439=ORIENTED_EDGE('',*,*,#323,.F.) ;
#468=ORIENTED_EDGE('',*,*,#355,.T.) ;
#469=ORIENTED_EDGE('',*,*,#454,.T.) ;
#470=ORIENTED_EDGE('',*,*,#461,.F.) ;
#471=ORIENTED_EDGE('',*,*,#466,.F.) ;
#492=ORIENTED_EDGE('',*,*,#360,.T.) ;
#493=ORIENTED_EDGE('',*,*,#466,.T.) ;
#494=ORIENTED_EDGE('',*,*,#490,.F.) ;
#495=ORIENTED_EDGE('',*,*,#454,.F.) ;
#505=ORIENTED_EDGE('',*,*,#434,.F.) ;
#506=ORIENTED_EDGE('',*,*,#411,.F.) ;
#507=ORIENTED_EDGE('',*,*,#391,.F.) ;
#510=ORIENTED_EDGE('',*,*,#490,.T.) ;
#511=ORIENTED_EDGE('',*,*,#461,.T.) ;
#141=FACE_BOUND('',#138,.T.) ;
#170=FACE_BOUND('',#167,.T.) ;
#364=FACE_BOUND('',#361,.T.) ;
#512=FACE_BOUND('',#509,.T.) ;
#31=CLOSED_SHELL('Closed Shell',(#83,#113,#142,#171,#194,#207)) ;
#213=CLOSED_SHELL('Closed Shell',(#286,#332,#365,#398,#423,#441,#473,#497,#513)) ;
#209=ADVANCED_BREP_SHAPE_REPRESENTATION('NONE',(#22,#211),#17) ;
#83=ADVANCED_FACE('NO_CUT',(#82),#36,.F.) ;
#113=ADVANCED_FACE('NO_CUT',(#112),#96,.F.) ;
#142=ADVANCED_FACE('NO_CUT',(#137,#141),#119,.T.) ;
#171=ADVANCED_FACE('NO_CUT',(#166,#170),#148,.F.) ;
#194=ADVANCED_FACE('NO_CUT',(#193),#177,.T.) ;
#207=ADVANCED_FACE('NO_CUT',(#206),#200,.T.) ;
#286=ADVANCED_FACE('CUT',(#285),#218,.T.) ;
#332=ADVANCED_FACE('CUT',(#331),#299,.T.) ;
#365=ADVANCED_FACE('CUT',(#346,#364),#338,.T.) ;
#398=ADVANCED_FACE('CUT',(#397),#371,.T.) ;
#423=ADVANCED_FACE('CUT',(#422),#404,.T.) ;
#441=ADVANCED_FACE('CUT',(#440),#429,.T.) ;
#473=ADVANCED_FACE('CUT',(#472),#447,.F.) ;
#497=ADVANCED_FACE('CUT',(#496),#479,.F.) ;
#513=ADVANCED_FACE('CUT',(#508,#512),#503,.F.) ;
#4=APPLICATION_PROTOCOL_DEFINITION('international standard','automotive_design',2001,#1) ;
#46=B_SPLINE_CURVE_WITH_KNOTS('',5,(#47,#48,#49,#50,#51,#52,#53,#54,#55),.UNSPECIFIED.,.F.,.U.,(6,3,6),(-3.76991118431,2.22044604925E-016,3.76991118431),.UNSPECIFIED.) ;
#66=B_SPLINE_CURVE_WITH_KNOTS('',5,(#67,#68,#69,#70,#71,#72,#73,#74,#75),.UNSPECIFIED.,.F.,.U.,(6,3,6),(-3.76991118431,2.22044604925E-016,3.76991118431),.UNSPECIFIED.) ;
#242=B_SPLINE_CURVE_WITH_KNOTS('',4,(#243,#244,#245,#246,#247),.UNSPECIFIED.,.F.,.U.,(5,5),(-4.28318530718,4.28318530718),.UNSPECIFIED.) ;
#258=B_SPLINE_CURVE_WITH_KNOTS('',5,(#259,#260,#261,#262,#263,#264,#265,#266,#267),.UNSPECIFIED.,.F.,.U.,(6,3,6),(-12.5663706144,-1.8641485001,8.83807361415),.UNSPECIFIED.) ;
#271=B_SPLINE_CURVE_WITH_KNOTS('',3,(#272,#273,#274,#275),.UNSPECIFIED.,.F.,.U.,(4,4),(8.83807361415,12.5663706144),.UNSPECIFIED.) ;
#379=B_SPLINE_CURVE_WITH_KNOTS('',3,(#380,#381,#382,#383),.UNSPECIFIED.,.F.,.U.,(4,4),(0.,1.66964085864),.UNSPECIFIED.) ;
#480=B_SPLINE_CURVE_WITH_KNOTS('',5,(#481,#482,#483,#484,#485,#486,#487,#488,#489),.UNSPECIFIED.,.F.,.U.,(6,3,6),(-3.76991118431,2.22044604925E-016,3.76991118431),.UNSPECIFIED.) ;
#22=MANIFOLD_SOLID_BREP('NO_CUT',#31) ;
#211=MANIFOLD_SOLID_BREP('CUT',#213) ;
#100=CIRCLE('generated circle',#99,2.4) ;
#105=CIRCLE('generated circle',#104,2.4) ;
#123=CIRCLE('generated circle',#122,4.80000000009) ;
#132=CIRCLE('generated circle',#131,4.80000000009) ;
#152=CIRCLE('generated circle',#151,4.80000000091) ;
#161=CIRCLE('generated circle',#160,4.80000000091) ;
#231=CIRCLE('generated circle',#230,8.) ;
#238=CIRCLE('generated circle',#237,8.) ;
#303=CIRCLE('generated circle',#302,8.) ;
#310=CIRCLE('generated circle',#309,8.) ;
#317=CIRCLE('generated circle',#316,8.) ;
#322=CIRCLE('generated circle',#321,8.) ;
#350=CIRCLE('generated circle',#349,2.40000000045) ;
#359=CIRCLE('generated circle',#358,2.40000000045) ;
#390=CIRCLE('generated circle',#389,7.50105080579) ;
#408=CIRCLE('generated circle',#407,7.50105080579) ;
#433=CIRCLE('generated circle',#432,7.50105080579) ;
#458=CIRCLE('generated circle',#457,2.4) ;
#23=COLOUR_RGB('Colour',0.823529411765,0.823529411765,1.) ;
#84=COLOUR_RGB('Colour',0.498039215686,0.498039215686,0.498039215686) ;
#287=COLOUR_RGB('Colour',0.8,0.8,0.8) ;
#371=CONICAL_SURFACE('Cone',#370,0.,0.436332312999) ;
#404=CONICAL_SURFACE('Cone',#403,0.,0.436332312999) ;
#429=CONICAL_SURFACE('Cone',#428,0.,0.436332312999) ;
#519=CONSTRUCTIVE_GEOMETRY_REPRESENTATION('supplemental geometry',(#518,#524,#528,#532),#17) ;
#520=CONSTRUCTIVE_GEOMETRY_REPRESENTATION_RELATIONSHIP('supplemental geometry','',#20,#519) ;
#91=OVER_RIDING_STYLED_ITEM(' ',(#90),#83,#30) ;
#114=OVER_RIDING_STYLED_ITEM(' ',(#90),#113,#30) ;
#143=OVER_RIDING_STYLED_ITEM(' ',(#90),#142,#30) ;
#172=OVER_RIDING_STYLED_ITEM(' ',(#90),#171,#30) ;
#195=OVER_RIDING_STYLED_ITEM(' ',(#90),#194,#30) ;
#208=OVER_RIDING_STYLED_ITEM(' ',(#90),#207,#30) ;
#294=OVER_RIDING_STYLED_ITEM(' ',(#293),#286,#212) ;
#333=OVER_RIDING_STYLED_ITEM(' ',(#293),#332,#212) ;
#366=OVER_RIDING_STYLED_ITEM(' ',(#293),#365,#212) ;
#399=OVER_RIDING_STYLED_ITEM(' ',(#293),#398,#212) ;
#424=OVER_RIDING_STYLED_ITEM(' ',(#293),#423,#212) ;
#442=OVER_RIDING_STYLED_ITEM(' ',(#293),#441,#212) ;
#474=OVER_RIDING_STYLED_ITEM(' ',(#293),#473,#212) ;
#498=OVER_RIDING_STYLED_ITEM(' ',(#293),#497,#212) ;
#514=OVER_RIDING_STYLED_ITEM(' ',(#293),#513,#212) ;
#36=CYLINDRICAL_SURFACE('generated cylinder',#35,2.4) ;
#96=CYLINDRICAL_SURFACE('generated cylinder',#95,2.4) ;
#177=CYLINDRICAL_SURFACE('generated cylinder',#176,4.8) ;
#200=CYLINDRICAL_SURFACE('generated cylinder',#199,4.8) ;
#218=CYLINDRICAL_SURFACE('generated cylinder',#217,8.) ;
#299=CYLINDRICAL_SURFACE('generated cylinder',#298,8.) ;
#447=CYLINDRICAL_SURFACE('generated cylinder',#446,2.4) ;
#479=CYLINDRICAL_SURFACE('generated cylinder',#478,2.4) ;
#45=EDGE_CURVE('',#42,#44,#40,.F.) ;
#58=EDGE_CURVE('',#42,#57,#46,.T.) ;
#65=EDGE_CURVE('',#57,#64,#62,.F.) ;
#76=EDGE_CURVE('',#44,#64,#66,.T.) ;
#101=EDGE_CURVE('',#57,#42,#100,.T.) ;
#106=EDGE_CURVE('',#64,#44,#105,.T.) ;
#128=EDGE_CURVE('',#125,#127,#123,.T.) ;
#133=EDGE_CURVE('',#127,#125,#132,.T.) ;
#157=EDGE_CURVE('',#154,#156,#152,.T.) ;
#162=EDGE_CURVE('',#156,#154,#161,.T.) ;
#182=EDGE_CURVE('',#125,#154,#181,.F.) ;
#187=EDGE_CURVE('',#127,#156,#186,.F.) ;
#227=EDGE_CURVE('',#224,#226,#222,.F.) ;
#234=EDGE_CURVE('',#233,#224,#231,.T.) ;
#241=EDGE_CURVE('',#240,#233,#238,.T.) ;
#250=EDGE_CURVE('',#249,#240,#242,.T.) ;
#257=EDGE_CURVE('',#249,#256,#254,.F.) ;
#270=EDGE_CURVE('',#256,#269,#258,.T.) ;
#276=EDGE_CURVE('',#269,#226,#271,.T.) ;
#306=EDGE_CURVE('',#305,#249,#303,.T.) ;
#313=EDGE_CURVE('',#312,#305,#310,.T.) ;
#318=EDGE_CURVE('',#224,#312,#317,.T.) ;
#323=EDGE_CURVE('',#226,#256,#322,.T.) ;
#355=EDGE_CURVE('',#352,#354,#350,.T.) ;
#360=EDGE_CURVE('',#354,#352,#359,.T.) ;
#378=EDGE_CURVE('',#377,#269,#375,.T.) ;
#386=EDGE_CURVE('',#256,#385,#379,.F.) ;
#391=EDGE_CURVE('',#385,#377,#390,.T.) ;
#411=EDGE_CURVE('',#377,#410,#408,.T.) ;
#416=EDGE_CURVE('',#226,#410,#415,.F.) ;
#434=EDGE_CURVE('',#410,#385,#433,.T.) ;
#454=EDGE_CURVE('',#354,#453,#451,.F.) ;
#461=EDGE_CURVE('',#460,#453,#458,.T.) ;
#466=EDGE_CURVE('',#352,#460,#465,.F.) ;
#490=EDGE_CURVE('',#453,#460,#480,.T.) ;
#77=EDGE_LOOP('',(#78,#79,#80,#81)) ;
#107=EDGE_LOOP('',(#108,#109,#110,#111)) ;
#134=EDGE_LOOP('',(#135,#136)) ;
#138=EDGE_LOOP('',(#139,#140)) ;
#163=EDGE_LOOP('',(#164,#165)) ;
#167=EDGE_LOOP('',(#168,#169)) ;
#188=EDGE_LOOP('',(#189,#190,#191,#192)) ;
#201=EDGE_LOOP('',(#202,#203,#204,#205)) ;
#277=EDGE_LOOP('',(#278,#279,#280,#281,#282,#283,#284)) ;
#324=EDGE_LOOP('',(#325,#326,#327,#328,#329,#330)) ;
#339=EDGE_LOOP('',(#340,#341,#342,#343,#344,#345)) ;
#361=EDGE_LOOP('',(#362,#363)) ;
#392=EDGE_LOOP('',(#393,#394,#395,#396)) ;
#417=EDGE_LOOP('',(#418,#419,#420,#421)) ;
#435=EDGE_LOOP('',(#436,#437,#438,#439)) ;
#467=EDGE_LOOP('',(#468,#469,#470,#471)) ;
#491=EDGE_LOOP('',(#492,#493,#494,#495)) ;
#504=EDGE_LOOP('',(#505,#506,#507)) ;
#509=EDGE_LOOP('',(#510,#511)) ;
#82=FACE_OUTER_BOUND('',#77,.T.) ;
#112=FACE_OUTER_BOUND('',#107,.T.) ;
#137=FACE_OUTER_BOUND('',#134,.T.) ;
#166=FACE_OUTER_BOUND('',#163,.T.) ;
#193=FACE_OUTER_BOUND('',#188,.T.) ;
#206=FACE_OUTER_BOUND('',#201,.T.) ;
#285=FACE_OUTER_BOUND('',#277,.T.) ;
#331=FACE_OUTER_BOUND('',#324,.T.) ;
#346=FACE_OUTER_BOUND('',#339,.T.) ;
#397=FACE_OUTER_BOUND('',#392,.T.) ;
#422=FACE_OUTER_BOUND('',#417,.T.) ;
#440=FACE_OUTER_BOUND('',#435,.T.) ;
#472=FACE_OUTER_BOUND('',#467,.T.) ;
#496=FACE_OUTER_BOUND('',#491,.T.) ;
#508=FACE_OUTER_BOUND('',#504,.T.) ;
#40=LINE('Line',#37,#39) ;
#62=LINE('Line',#59,#61) ;
#181=LINE('Line',#178,#180) ;
#186=LINE('Line',#183,#185) ;
#222=LINE('Line',#219,#221) ;
#254=LINE('Line',#251,#253) ;
#375=LINE('Line',#372,#374) ;
#415=LINE('Line',#412,#414) ;
#451=LINE('Line',#448,#450) ;
#465=LINE('Line',#462,#464) ;
#119=PLANE('',#118) ;
#148=PLANE('',#147) ;
#338=PLANE('',#337) ;
#503=PLANE('',#502) ;
#14=PLANE_ANGLE_MEASURE_WITH_UNIT(PLANE_ANGLE_MEASURE(0.0174532925199),#13) ;
#9=PRODUCT_CATEGORY_RELATIONSHIP(' ',' ',#7,#8) ;
#6=PRODUCT_DEFINITION_FORMATION_WITH_SPECIFIED_SOURCE('',' ',#5,.NOT_KNOWN.) ;
#21=SHAPE_DEFINITION_REPRESENTATION(#11,#20) ;
#42=VERTEX_POINT('',#41) ;
#44=VERTEX_POINT('',#43) ;
#57=VERTEX_POINT('',#56) ;
#64=VERTEX_POINT('',#63) ;
#125=VERTEX_POINT('',#124) ;
#127=VERTEX_POINT('',#126) ;
#154=VERTEX_POINT('',#153) ;
#156=VERTEX_POINT('',#155) ;
#224=VERTEX_POINT('',#223) ;
#226=VERTEX_POINT('',#225) ;
#233=VERTEX_POINT('',#232) ;
#240=VERTEX_POINT('',#239) ;
#249=VERTEX_POINT('',#248) ;
#256=VERTEX_POINT('',#255) ;
#269=VERTEX_POINT('',#268) ;
#305=VERTEX_POINT('',#304) ;
#312=VERTEX_POINT('',#311) ;
#352=VERTEX_POINT('',#351) ;
#354=VERTEX_POINT('',#353) ;
#377=VERTEX_POINT('',#376) ;
#385=VERTEX_POINT('',#384) ;
#410=VERTEX_POINT('',#409) ;
#453=VERTEX_POINT('',#452) ;
#460=VERTEX_POINT('',#459) ;
#12=(LENGTH_UNIT()NAMED_UNIT(*)SI_UNIT(.MILLI.,.METRE.)) ;
#13=(NAMED_UNIT(*)PLANE_ANGLE_UNIT()SI_UNIT($,.RADIAN.)) ;
#15=(NAMED_UNIT(*)SI_UNIT($,.STERADIAN.)SOLID_ANGLE_UNIT()) ;
#17=(GEOMETRIC_REPRESENTATION_CONTEXT(3)GLOBAL_UNCERTAINTY_ASSIGNED_CONTEXT((#16))GLOBAL_UNIT_ASSIGNED_CONTEXT((#12,#13,#15))REPRESENTATION_CONTEXT(' ',' ')) ;
ENDSEC;
END-ISO-10303-21;
