ISO-10303-21;
HEADER;
FILE_DESCRIPTION(('CATIA V5 STEP Exchange'),'2;1');

FILE_NAME('I:\\isr\\design\\admin8\\users\\hala_s\\3199685N.stp','2012-04-10T08:25:25+00:00',('none'),('none'),'CATIA Version 5 Release 19 SP 7 (IN-10)','CATIA V5 STEP AP214','none');

FILE_SCHEMA(('AUTOMOTIVE_DESIGN { 1 0 10303 214 1 1 1 1 }'));

ENDSEC;
/* file written by CATIA V5R19 */
DATA;
#5=PRODUCT('60936060_0 Assembly  MTSRH 45-6 ','','',(#2)) ;
#2=PRODUCT_CONTEXT(' ',#1,'mechanical') ;
#1=APPLICATION_CONTEXT('automotive design') ;
#10=PRODUCT_DEFINITION('',' ',#6,#3) ;
#3=PRODUCT_DEFINITION_CONTEXT('part definition',#1,' ') ;
#11=PRODUCT_DEFINITION_SHAPE(' ',' ',#10) ;
#387=MECHANICAL_DESIGN_GEOMETRIC_PRESENTATION_REPRESENTATION(' ',(#30,#294),#17) ;
#20=SHAPE_REPRESENTATION(' ',(#19),#17) ;
#19=AXIS2_PLACEMENT_3D(' ',#18,$,$) ;
#35=AXIS2_PLACEMENT_3D('Cylinder Axis2P3D',#32,#33,#34) ;
#39=AXIS2_PLACEMENT_3D('Circle Axis2P3D',#37,#38,$) ;
#55=AXIS2_PLACEMENT_3D('Circle Axis2P3D',#53,#54,$) ;
#74=AXIS2_PLACEMENT_3D('Circle Axis2P3D',#72,#73,$) ;
#79=AXIS2_PLACEMENT_3D('Circle Axis2P3D',#77,#78,$) ;
#92=AXIS2_PLACEMENT_3D('Cylinder Axis2P3D',#89,#90,#91) ;
#96=AXIS2_PLACEMENT_3D('Circle Axis2P3D',#94,#95,$) ;
#112=AXIS2_PLACEMENT_3D('Circle Axis2P3D',#110,#111,$) ;
#131=AXIS2_PLACEMENT_3D('Circle Axis2P3D',#129,#130,$) ;
#136=AXIS2_PLACEMENT_3D('Circle Axis2P3D',#134,#135,$) ;
#155=AXIS2_PLACEMENT_3D('Circle Axis2P3D',#153,#154,$) ;
#174=AXIS2_PLACEMENT_3D('Circle Axis2P3D',#172,#173,$) ;
#187=AXIS2_PLACEMENT_3D('Cone Axis2P3D',#184,#185,#186) ;
#191=AXIS2_PLACEMENT_3D('Circle Axis2P3D',#189,#190,$) ;
#217=AXIS2_PLACEMENT_3D('Circle Axis2P3D',#215,#216,$) ;
#230=AXIS2_PLACEMENT_3D('Plane Axis2P3D',#227,#228,#229) ;
#244=AXIS2_PLACEMENT_3D('Plane Axis2P3D',#241,#242,#243) ;
#252=AXIS2_PLACEMENT_3D('Circle Axis2P3D',#250,#251,$) ;
#261=AXIS2_PLACEMENT_3D('Circle Axis2P3D',#259,#260,$) ;
#277=AXIS2_PLACEMENT_3D('Plane Axis2P3D',#274,#275,#276) ;
#299=AXIS2_PLACEMENT_3D('Cylinder Axis2P3D',#296,#297,#298) ;
#303=AXIS2_PLACEMENT_3D('Circle Axis2P3D',#301,#302,$) ;
#319=AXIS2_PLACEMENT_3D('Circle Axis2P3D',#317,#318,$) ;
#338=AXIS2_PLACEMENT_3D('Circle Axis2P3D',#336,#337,$) ;
#343=AXIS2_PLACEMENT_3D('Circle Axis2P3D',#341,#342,$) ;
#356=AXIS2_PLACEMENT_3D('Plane Axis2P3D',#353,#354,#355) ;
#366=AXIS2_PLACEMENT_3D('Plane Axis2P3D',#363,#364,#365) ;
#376=AXIS2_PLACEMENT_3D('CIP',#373,#374,#375) ;
#382=AXIS2_PLACEMENT_3D('PCS',#379,#380,#381) ;
#386=AXIS2_PLACEMENT_3D('MCS',#383,#384,#385) ;
#18=CARTESIAN_POINT(' ',(0.,0.,0.)) ;
#32=CARTESIAN_POINT('Axis2P3D Location',(-3.98010185235E-015,0.,64.9999960009)) ;
#37=CARTESIAN_POINT('Axis2P3D Location',(-3.06159250493E-017,0.,0.499996)) ;
#41=CARTESIAN_POINT('Vertex',(8.88535315566,16.2645298545,0.499996)) ;
#43=CARTESIAN_POINT('Vertex',(-8.88535315566,-16.2645298545,0.499996)) ;
#46=CARTESIAN_POINT('Line Origine',(8.88535315566,16.2645298545,20.749996)) ;
#50=CARTESIAN_POINT('Vertex',(8.88535315566,16.2645298545,40.999996)) ;
#53=CARTESIAN_POINT('Axis2P3D Location',(-2.51052569332E-015,0.,40.999996)) ;
#57=CARTESIAN_POINT('Vertex',(-8.88535315566,-16.2645298545,40.999996)) ;
#60=CARTESIAN_POINT('Line Origine',(-8.88535315566,-16.2645298545,20.749996)) ;
#72=CARTESIAN_POINT('Axis2P3D Location',(-3.06159250493E-017,0.,0.499996)) ;
#77=CARTESIAN_POINT('Axis2P3D Location',(-2.51052569332E-015,0.,40.999996)) ;
#89=CARTESIAN_POINT('Axis2P3D Location',(-3.98010185235E-015,0.,64.9999960009)) ;
#94=CARTESIAN_POINT('Axis2P3D Location',(-2.51052569332E-015,0.,40.999996)) ;
#98=CARTESIAN_POINT('Vertex',(7.67080861767,14.0413209902,40.999996)) ;
#100=CARTESIAN_POINT('Vertex',(-7.67080861767,-14.0413209902,40.999996)) ;
#103=CARTESIAN_POINT('Line Origine',(7.67080861767,14.0413209902,85.499996)) ;
#107=CARTESIAN_POINT('Vertex',(7.67080861767,14.0413209902,69.999996)) ;
#110=CARTESIAN_POINT('Axis2P3D Location',(-4.28626355209E-015,0.,69.999996)) ;
#114=CARTESIAN_POINT('Vertex',(-7.67080861767,-14.0413209902,69.999996)) ;
#117=CARTESIAN_POINT('Line Origine',(-7.67080861767,-14.0413209902,85.499996)) ;
#129=CARTESIAN_POINT('Axis2P3D Location',(-2.51052569332E-015,0.,40.999996)) ;
#134=CARTESIAN_POINT('Axis2P3D Location',(-4.28626355209E-015,0.,69.999996)) ;
#146=CARTESIAN_POINT('Line Origine',(7.67080861767,14.0413209902,85.499996)) ;
#150=CARTESIAN_POINT('Vertex',(7.67080861767,14.0413209902,129.999996)) ;
#153=CARTESIAN_POINT('Axis2P3D Location',(-7.96020394953E-015,0.,129.999996)) ;
#157=CARTESIAN_POINT('Vertex',(-7.67080861767,-14.0413209902,129.999996)) ;
#160=CARTESIAN_POINT('Line Origine',(-7.67080861767,-14.0413209902,85.499996)) ;
#172=CARTESIAN_POINT('Axis2P3D Location',(-7.96020394953E-015,0.,129.999996)) ;
#184=CARTESIAN_POINT('Axis2P3D Location',(2.44929362692E-022,0.,-4.00000004674E-006)) ;
#189=CARTESIAN_POINT('Axis2P3D Location',(2.44929362692E-022,0.,-4.00000004674E-006)) ;
#193=CARTESIAN_POINT('Vertex',(8.70658304312,15.9372933585,-4.00000004621E-006)) ;
#195=CARTESIAN_POINT('Vertex',(-8.70658304312,-15.9372933585,-4.00000004728E-006)) ;
#198=CARTESIAN_POINT('Line Origine',(8.79596809939,16.1009116065,0.249996)) ;
#203=CARTESIAN_POINT('Line Origine',(-8.79596809939,-16.1009116065,0.249996)) ;
#215=CARTESIAN_POINT('Axis2P3D Location',(2.44929362692E-022,0.,-4.00000004674E-006)) ;
#227=CARTESIAN_POINT('Axis2P3D Location',(-2.51052569332E-015,18.533333,40.999996)) ;
#241=CARTESIAN_POINT('Axis2P3D Location',(-7.96020394953E-015,16.,129.999996)) ;
#250=CARTESIAN_POINT('Axis2P3D Location',(-7.96020394953E-015,0.,129.999996)) ;
#254=CARTESIAN_POINT('Vertex',(-6.73176788314,-12.3224184555,129.999996)) ;
#256=CARTESIAN_POINT('Vertex',(6.73176788314,12.3224184555,129.999996)) ;
#259=CARTESIAN_POINT('Axis2P3D Location',(-7.96020394953E-015,0.,129.999996)) ;
#274=CARTESIAN_POINT('Axis2P3D Location',(0.,0.,0.)) ;
#296=CARTESIAN_POINT('Axis2P3D Location',(-1.13279804434E-015,0.,18.4999960009)) ;
#301=CARTESIAN_POINT('Axis2P3D Location',(2.44929361012E-022,0.,-4.00000001832E-006)) ;
#305=CARTESIAN_POINT('Vertex',(10.7870746186,19.7456076425,-4.00000001766E-006)) ;
#307=CARTESIAN_POINT('Vertex',(-10.7870746186,-19.7456076425,-4.00000001898E-006)) ;
#310=CARTESIAN_POINT('Line Origine',(10.7870746186,19.7456076425,18.499996)) ;
#314=CARTESIAN_POINT('Vertex',(10.7870746186,19.7456076425,36.999996)) ;
#317=CARTESIAN_POINT('Axis2P3D Location',(-2.26559633349E-015,0.,36.999996)) ;
#321=CARTESIAN_POINT('Vertex',(-10.7870746186,-19.7456076425,36.999996)) ;
#324=CARTESIAN_POINT('Line Origine',(-10.7870746186,-19.7456076425,18.499996)) ;
#336=CARTESIAN_POINT('Axis2P3D Location',(2.44929361012E-022,0.,-4.00000001832E-006)) ;
#341=CARTESIAN_POINT('Axis2P3D Location',(-2.26559633349E-015,0.,36.999996)) ;
#353=CARTESIAN_POINT('Axis2P3D Location',(2.4492936095E-022,22.5,-4.0000000183E-006)) ;
#363=CARTESIAN_POINT('Axis2P3D Location',(-2.26559633349E-015,5.68E-014,36.999996)) ;
#373=CARTESIAN_POINT('Axis2P3D Location',(0.,0.,0.)) ;
#379=CARTESIAN_POINT('Axis2P3D Location',(0.,0.,130.)) ;
#383=CARTESIAN_POINT('Axis2P3D Location',(0.,0.,70.)) ;
#33=DIRECTION('Axis2P3D Direction',(6.12323399574E-017,0.,-1.)) ;
#34=DIRECTION('Axis2P3D XDirection',(0.479425538604,0.87758256189,2.93563475641E-017)) ;
#38=DIRECTION('Axis2P3D Direction',(6.12323399574E-017,0.,-1.)) ;
#47=DIRECTION('Vector Direction',(4.38606627012E-017,0.,-1.)) ;
#54=DIRECTION('Axis2P3D Direction',(6.12323399574E-017,0.,-1.)) ;
#61=DIRECTION('Vector Direction',(4.38606627012E-017,0.,-1.)) ;
#73=DIRECTION('Axis2P3D Direction',(6.12323399574E-017,0.,-1.)) ;
#78=DIRECTION('Axis2P3D Direction',(6.12323399574E-017,0.,-1.)) ;
#90=DIRECTION('Axis2P3D Direction',(6.12323399574E-017,0.,-1.)) ;
#91=DIRECTION('Axis2P3D XDirection',(0.479425538604,0.87758256189,2.93563475641E-017)) ;
#95=DIRECTION('Axis2P3D Direction',(6.12323399574E-017,0.,-1.)) ;
#104=DIRECTION('Vector Direction',(5.98771968337E-017,0.,-1.)) ;
#111=DIRECTION('Axis2P3D Direction',(6.12323399574E-017,0.,-1.)) ;
#118=DIRECTION('Vector Direction',(5.98771968337E-017,0.,-1.)) ;
#130=DIRECTION('Axis2P3D Direction',(6.12323399574E-017,0.,-1.)) ;
#135=DIRECTION('Axis2P3D Direction',(6.12323399574E-017,0.,-1.)) ;
#147=DIRECTION('Vector Direction',(5.98771968337E-017,0.,-1.)) ;
#154=DIRECTION('Axis2P3D Direction',(6.12323399574E-017,0.,-1.)) ;
#161=DIRECTION('Vector Direction',(5.98771968337E-017,0.,-1.)) ;
#173=DIRECTION('Axis2P3D Direction',(6.12323399574E-017,0.,-1.)) ;
#185=DIRECTION('Axis2P3D Direction',(-6.12323399574E-017,-0.,1.)) ;
#186=DIRECTION('Axis2P3D XDirection',(0.479425538604,0.87758256189,0.)) ;
#190=DIRECTION('Axis2P3D Direction',(-6.12323399574E-017,0.,1.)) ;
#199=DIRECTION('Vector Direction',(0.28661334152,0.524642202532,0.801625443574)) ;
#204=DIRECTION('Vector Direction',(-0.28661334152,-0.524642202532,0.801625443574)) ;
#216=DIRECTION('Axis2P3D Direction',(-6.12323399574E-017,0.,1.)) ;
#228=DIRECTION('Axis2P3D Direction',(6.12323399574E-017,0.,-1.)) ;
#229=DIRECTION('Axis2P3D XDirection',(0.,1.,0.)) ;
#242=DIRECTION('Axis2P3D Direction',(6.12323399574E-017,0.,-1.)) ;
#243=DIRECTION('Axis2P3D XDirection',(0.,1.,0.)) ;
#251=DIRECTION('Axis2P3D Direction',(6.12323399574E-017,0.,-1.)) ;
#260=DIRECTION('Axis2P3D Direction',(6.12323399574E-017,0.,-1.)) ;
#275=DIRECTION('Axis2P3D Direction',(6.12323399574E-017,0.,-1.)) ;
#276=DIRECTION('Axis2P3D XDirection',(0.,1.,0.)) ;
#297=DIRECTION('Axis2P3D Direction',(6.12323399574E-017,0.,-1.)) ;
#298=DIRECTION('Axis2P3D XDirection',(0.479425538604,0.87758256189,2.93563475641E-017)) ;
#302=DIRECTION('Axis2P3D Direction',(6.12323399574E-017,0.,-1.)) ;
#311=DIRECTION('Vector Direction',(4.80096443081E-017,0.,-1.)) ;
#318=DIRECTION('Axis2P3D Direction',(6.12323399574E-017,0.,-1.)) ;
#325=DIRECTION('Vector Direction',(4.80096443081E-017,0.,-1.)) ;
#337=DIRECTION('Axis2P3D Direction',(6.12323399574E-017,0.,-1.)) ;
#342=DIRECTION('Axis2P3D Direction',(6.12323399574E-017,0.,-1.)) ;
#354=DIRECTION('Axis2P3D Direction',(6.12323399574E-017,0.,-1.)) ;
#355=DIRECTION('Axis2P3D XDirection',(0.,1.,0.)) ;
#364=DIRECTION('Axis2P3D Direction',(6.12323399574E-017,0.,-1.)) ;
#365=DIRECTION('Axis2P3D XDirection',(0.,1.,0.)) ;
#374=DIRECTION('Axis2P3D Direction',(0.,0.,1.)) ;
#375=DIRECTION('Axis2P3D XDirection',(1.,0.,0.)) ;
#380=DIRECTION('Axis2P3D Direction',(0.,0.,1.)) ;
#381=DIRECTION('Axis2P3D XDirection',(1.,0.,0.)) ;
#384=DIRECTION('Axis2P3D Direction',(0.,0.,1.)) ;
#385=DIRECTION('Axis2P3D XDirection',(1.,0.,0.)) ;
#8=PRODUCT_RELATED_PRODUCT_CATEGORY('part',$,(#5)) ;
#7=PRODUCT_CATEGORY('part','specification') ;
#30=STYLED_ITEM(' ',(#29),#22) ;
#294=STYLED_ITEM(' ',(#293),#286) ;
#29=PRESENTATION_STYLE_ASSIGNMENT((#28)) ;
#293=PRESENTATION_STYLE_ASSIGNMENT((#292)) ;
#28=SURFACE_STYLE_USAGE(.BOTH.,#27) ;
#292=SURFACE_STYLE_USAGE(.BOTH.,#291) ;
#27=SURFACE_SIDE_STYLE(' ',(#26)) ;
#291=SURFACE_SIDE_STYLE(' ',(#290)) ;
#26=SURFACE_STYLE_FILL_AREA(#25) ;
#290=SURFACE_STYLE_FILL_AREA(#289) ;
#25=FILL_AREA_STYLE(' ',(#24)) ;
#289=FILL_AREA_STYLE(' ',(#288)) ;
#24=FILL_AREA_STYLE_COLOUR(' ',#23) ;
#288=FILL_AREA_STYLE_COLOUR(' ',#287) ;
#48=VECTOR('Line Direction',#47,1.) ;
#62=VECTOR('Line Direction',#61,1.) ;
#105=VECTOR('Line Direction',#104,1.) ;
#119=VECTOR('Line Direction',#118,1.) ;
#148=VECTOR('Line Direction',#147,1.) ;
#162=VECTOR('Line Direction',#161,1.) ;
#200=VECTOR('Line Direction',#199,1.) ;
#205=VECTOR('Line Direction',#204,1.) ;
#312=VECTOR('Line Direction',#311,1.) ;
#326=VECTOR('Line Direction',#325,1.) ;
#16=UNCERTAINTY_MEASURE_WITH_UNIT(LENGTH_MEASURE(0.005),#12,'distance_accuracy_value','CONFUSED CURVE UNCERTAINTY') ;
#285=SHAPE_REPRESENTATION_RELATIONSHIP(' ',' ',#20,#284) ;
#66=ORIENTED_EDGE('',*,*,#45,.F.) ;
#67=ORIENTED_EDGE('',*,*,#52,.T.) ;
#68=ORIENTED_EDGE('',*,*,#59,.T.) ;
#69=ORIENTED_EDGE('',*,*,#64,.F.) ;
#83=ORIENTED_EDGE('',*,*,#76,.F.) ;
#84=ORIENTED_EDGE('',*,*,#64,.T.) ;
#85=ORIENTED_EDGE('',*,*,#81,.T.) ;
#86=ORIENTED_EDGE('',*,*,#52,.F.) ;
#123=ORIENTED_EDGE('',*,*,#102,.F.) ;
#124=ORIENTED_EDGE('',*,*,#109,.T.) ;
#125=ORIENTED_EDGE('',*,*,#116,.T.) ;
#126=ORIENTED_EDGE('',*,*,#121,.F.) ;
#140=ORIENTED_EDGE('',*,*,#133,.F.) ;
#141=ORIENTED_EDGE('',*,*,#121,.T.) ;
#142=ORIENTED_EDGE('',*,*,#138,.T.) ;
#143=ORIENTED_EDGE('',*,*,#109,.F.) ;
#166=ORIENTED_EDGE('',*,*,#116,.F.) ;
#167=ORIENTED_EDGE('',*,*,#152,.T.) ;
#168=ORIENTED_EDGE('',*,*,#159,.T.) ;
#169=ORIENTED_EDGE('',*,*,#164,.F.) ;
#178=ORIENTED_EDGE('',*,*,#138,.F.) ;
#179=ORIENTED_EDGE('',*,*,#164,.T.) ;
#180=ORIENTED_EDGE('',*,*,#176,.T.) ;
#181=ORIENTED_EDGE('',*,*,#152,.F.) ;
#209=ORIENTED_EDGE('',*,*,#197,.F.) ;
#210=ORIENTED_EDGE('',*,*,#202,.T.) ;
#211=ORIENTED_EDGE('',*,*,#45,.T.) ;
#212=ORIENTED_EDGE('',*,*,#207,.F.) ;
#221=ORIENTED_EDGE('',*,*,#219,.F.) ;
#222=ORIENTED_EDGE('',*,*,#207,.T.) ;
#223=ORIENTED_EDGE('',*,*,#76,.T.) ;
#224=ORIENTED_EDGE('',*,*,#202,.F.) ;
#233=ORIENTED_EDGE('',*,*,#59,.F.) ;
#234=ORIENTED_EDGE('',*,*,#81,.F.) ;
#237=ORIENTED_EDGE('',*,*,#133,.T.) ;
#238=ORIENTED_EDGE('',*,*,#102,.T.) ;
#247=ORIENTED_EDGE('',*,*,#159,.F.) ;
#248=ORIENTED_EDGE('',*,*,#176,.F.) ;
#265=ORIENTED_EDGE('',*,*,#258,.T.) ;
#266=ORIENTED_EDGE('',*,*,#263,.T.) ;
#270=ORIENTED_EDGE('',*,*,#263,.F.) ;
#271=ORIENTED_EDGE('',*,*,#258,.F.) ;
#280=ORIENTED_EDGE('',*,*,#197,.T.) ;
#281=ORIENTED_EDGE('',*,*,#219,.T.) ;
#330=ORIENTED_EDGE('',*,*,#309,.F.) ;
#331=ORIENTED_EDGE('',*,*,#316,.T.) ;
#332=ORIENTED_EDGE('',*,*,#323,.T.) ;
#333=ORIENTED_EDGE('',*,*,#328,.F.) ;
#347=ORIENTED_EDGE('',*,*,#340,.F.) ;
#348=ORIENTED_EDGE('',*,*,#328,.T.) ;
#349=ORIENTED_EDGE('',*,*,#345,.T.) ;
#350=ORIENTED_EDGE('',*,*,#316,.F.) ;
#359=ORIENTED_EDGE('',*,*,#309,.T.) ;
#360=ORIENTED_EDGE('',*,*,#340,.T.) ;
#369=ORIENTED_EDGE('',*,*,#323,.F.) ;
#370=ORIENTED_EDGE('',*,*,#345,.F.) ;
#239=FACE_BOUND('',#236,.T.) ;
#267=FACE_BOUND('',#264,.T.) ;
#31=CLOSED_SHELL('Closed Shell',(#71,#88,#128,#145,#171,#183,#214,#226,#240,#268,#273,#283)) ;
#295=CLOSED_SHELL('Closed Shell',(#335,#352,#362,#372)) ;
#284=ADVANCED_BREP_SHAPE_REPRESENTATION('NONE',(#22,#286),#17) ;
#71=ADVANCED_FACE('NO_CUT',(#70),#36,.T.) ;
#88=ADVANCED_FACE('NO_CUT',(#87),#36,.T.) ;
#128=ADVANCED_FACE('NO_CUT',(#127),#93,.T.) ;
#145=ADVANCED_FACE('NO_CUT',(#144),#93,.T.) ;
#171=ADVANCED_FACE('NO_CUT',(#170),#93,.T.) ;
#183=ADVANCED_FACE('NO_CUT',(#182),#93,.T.) ;
#214=ADVANCED_FACE('NO_CUT',(#213),#188,.T.) ;
#226=ADVANCED_FACE('NO_CUT',(#225),#188,.T.) ;
#240=ADVANCED_FACE('NO_CUT',(#235,#239),#231,.F.) ;
#268=ADVANCED_FACE('NO_CUT',(#249,#267),#245,.F.) ;
#273=ADVANCED_FACE('NO_CUT',(#272),#245,.F.) ;
#283=ADVANCED_FACE('NO_CUT',(#282),#278,.T.) ;
#335=ADVANCED_FACE('CUT',(#334),#300,.T.) ;
#352=ADVANCED_FACE('CUT',(#351),#300,.T.) ;
#362=ADVANCED_FACE('CUT',(#361),#357,.T.) ;
#372=ADVANCED_FACE('CUT',(#371),#367,.F.) ;
#4=APPLICATION_PROTOCOL_DEFINITION('international standard','automotive_design',2001,#1) ;
#22=MANIFOLD_SOLID_BREP('NO_CUT',#31) ;
#286=MANIFOLD_SOLID_BREP('CUT',#295) ;
#40=CIRCLE('generated circle',#39,18.533333) ;
#56=CIRCLE('generated circle',#55,18.533333) ;
#75=CIRCLE('generated circle',#74,18.533333) ;
#80=CIRCLE('generated circle',#79,18.533333) ;
#97=CIRCLE('generated circle',#96,16.) ;
#113=CIRCLE('generated circle',#112,16.) ;
#132=CIRCLE('generated circle',#131,16.) ;
#137=CIRCLE('generated circle',#136,16.) ;
#156=CIRCLE('generated circle',#155,16.) ;
#175=CIRCLE('generated circle',#174,16.) ;
#192=CIRCLE('generated circle',#191,18.160449) ;
#218=CIRCLE('generated circle',#217,18.160449) ;
#253=CIRCLE('generated circle',#252,14.041321) ;
#262=CIRCLE('generated circle',#261,14.041321) ;
#304=CIRCLE('generated circle',#303,22.5) ;
#320=CIRCLE('generated circle',#319,22.5) ;
#339=CIRCLE('generated circle',#338,22.5) ;
#344=CIRCLE('generated circle',#343,22.5) ;
#23=COLOUR_RGB('Colour',0.498039215686,0.498039215686,0.498039215686) ;
#287=COLOUR_RGB('Colour',0.8,0.8,0.8) ;
#188=CONICAL_SURFACE('Cone',#187,18.160449,0.64078712236) ;
#377=CONSTRUCTIVE_GEOMETRY_REPRESENTATION('supplemental geometry',(#376,#382,#386),#17) ;
#378=CONSTRUCTIVE_GEOMETRY_REPRESENTATION_RELATIONSHIP('supplemental geometry','',#20,#377) ;
#36=CYLINDRICAL_SURFACE('generated cylinder',#35,18.533333) ;
#93=CYLINDRICAL_SURFACE('generated cylinder',#92,16.) ;
#300=CYLINDRICAL_SURFACE('generated cylinder',#299,22.5) ;
#45=EDGE_CURVE('',#42,#44,#40,.T.) ;
#52=EDGE_CURVE('',#42,#51,#49,.F.) ;
#59=EDGE_CURVE('',#51,#58,#56,.T.) ;
#64=EDGE_CURVE('',#44,#58,#63,.F.) ;
#76=EDGE_CURVE('',#44,#42,#75,.T.) ;
#81=EDGE_CURVE('',#58,#51,#80,.T.) ;
#102=EDGE_CURVE('',#99,#101,#97,.T.) ;
#109=EDGE_CURVE('',#99,#108,#106,.F.) ;
#116=EDGE_CURVE('',#108,#115,#113,.T.) ;
#121=EDGE_CURVE('',#101,#115,#120,.F.) ;
#133=EDGE_CURVE('',#101,#99,#132,.T.) ;
#138=EDGE_CURVE('',#115,#108,#137,.T.) ;
#152=EDGE_CURVE('',#108,#151,#149,.F.) ;
#159=EDGE_CURVE('',#151,#158,#156,.T.) ;
#164=EDGE_CURVE('',#115,#158,#163,.F.) ;
#176=EDGE_CURVE('',#158,#151,#175,.T.) ;
#197=EDGE_CURVE('',#194,#196,#192,.F.) ;
#202=EDGE_CURVE('',#194,#42,#201,.T.) ;
#207=EDGE_CURVE('',#196,#44,#206,.T.) ;
#219=EDGE_CURVE('',#196,#194,#218,.F.) ;
#258=EDGE_CURVE('',#255,#257,#253,.T.) ;
#263=EDGE_CURVE('',#257,#255,#262,.T.) ;
#309=EDGE_CURVE('',#306,#308,#304,.T.) ;
#316=EDGE_CURVE('',#306,#315,#313,.F.) ;
#323=EDGE_CURVE('',#315,#322,#320,.T.) ;
#328=EDGE_CURVE('',#308,#322,#327,.F.) ;
#340=EDGE_CURVE('',#308,#306,#339,.T.) ;
#345=EDGE_CURVE('',#322,#315,#344,.T.) ;
#65=EDGE_LOOP('',(#66,#67,#68,#69)) ;
#82=EDGE_LOOP('',(#83,#84,#85,#86)) ;
#122=EDGE_LOOP('',(#123,#124,#125,#126)) ;
#139=EDGE_LOOP('',(#140,#141,#142,#143)) ;
#165=EDGE_LOOP('',(#166,#167,#168,#169)) ;
#177=EDGE_LOOP('',(#178,#179,#180,#181)) ;
#208=EDGE_LOOP('',(#209,#210,#211,#212)) ;
#220=EDGE_LOOP('',(#221,#222,#223,#224)) ;
#232=EDGE_LOOP('',(#233,#234)) ;
#236=EDGE_LOOP('',(#237,#238)) ;
#246=EDGE_LOOP('',(#247,#248)) ;
#264=EDGE_LOOP('',(#265,#266)) ;
#269=EDGE_LOOP('',(#270,#271)) ;
#279=EDGE_LOOP('',(#280,#281)) ;
#329=EDGE_LOOP('',(#330,#331,#332,#333)) ;
#346=EDGE_LOOP('',(#347,#348,#349,#350)) ;
#358=EDGE_LOOP('',(#359,#360)) ;
#368=EDGE_LOOP('',(#369,#370)) ;
#70=FACE_OUTER_BOUND('',#65,.T.) ;
#87=FACE_OUTER_BOUND('',#82,.T.) ;
#127=FACE_OUTER_BOUND('',#122,.T.) ;
#144=FACE_OUTER_BOUND('',#139,.T.) ;
#170=FACE_OUTER_BOUND('',#165,.T.) ;
#182=FACE_OUTER_BOUND('',#177,.T.) ;
#213=FACE_OUTER_BOUND('',#208,.T.) ;
#225=FACE_OUTER_BOUND('',#220,.T.) ;
#235=FACE_OUTER_BOUND('',#232,.T.) ;
#249=FACE_OUTER_BOUND('',#246,.T.) ;
#272=FACE_OUTER_BOUND('',#269,.T.) ;
#282=FACE_OUTER_BOUND('',#279,.T.) ;
#334=FACE_OUTER_BOUND('',#329,.T.) ;
#351=FACE_OUTER_BOUND('',#346,.T.) ;
#361=FACE_OUTER_BOUND('',#358,.T.) ;
#371=FACE_OUTER_BOUND('',#368,.T.) ;
#49=LINE('Line',#46,#48) ;
#63=LINE('Line',#60,#62) ;
#106=LINE('Line',#103,#105) ;
#120=LINE('Line',#117,#119) ;
#149=LINE('Line',#146,#148) ;
#163=LINE('Line',#160,#162) ;
#201=LINE('Line',#198,#200) ;
#206=LINE('Line',#203,#205) ;
#313=LINE('Line',#310,#312) ;
#327=LINE('Line',#324,#326) ;
#231=PLANE('Plane',#230) ;
#245=PLANE('Plane',#244) ;
#278=PLANE('Plane',#277) ;
#357=PLANE('Plane',#356) ;
#367=PLANE('Plane',#366) ;
#14=PLANE_ANGLE_MEASURE_WITH_UNIT(PLANE_ANGLE_MEASURE(0.0174532925199),#13) ;
#9=PRODUCT_CATEGORY_RELATIONSHIP(' ',' ',#7,#8) ;
#6=PRODUCT_DEFINITION_FORMATION_WITH_SPECIFIED_SOURCE('',' ',#5,.NOT_KNOWN.) ;
#21=SHAPE_DEFINITION_REPRESENTATION(#11,#20) ;
#42=VERTEX_POINT('',#41) ;
#44=VERTEX_POINT('',#43) ;
#51=VERTEX_POINT('',#50) ;
#58=VERTEX_POINT('',#57) ;
#99=VERTEX_POINT('',#98) ;
#101=VERTEX_POINT('',#100) ;
#108=VERTEX_POINT('',#107) ;
#115=VERTEX_POINT('',#114) ;
#151=VERTEX_POINT('',#150) ;
#158=VERTEX_POINT('',#157) ;
#194=VERTEX_POINT('',#193) ;
#196=VERTEX_POINT('',#195) ;
#255=VERTEX_POINT('',#254) ;
#257=VERTEX_POINT('',#256) ;
#306=VERTEX_POINT('',#305) ;
#308=VERTEX_POINT('',#307) ;
#315=VERTEX_POINT('',#314) ;
#322=VERTEX_POINT('',#321) ;
#12=(LENGTH_UNIT()NAMED_UNIT(*)SI_UNIT(.MILLI.,.METRE.)) ;
#13=(NAMED_UNIT(*)PLANE_ANGLE_UNIT()SI_UNIT($,.RADIAN.)) ;
#15=(NAMED_UNIT(*)SI_UNIT($,.STERADIAN.)SOLID_ANGLE_UNIT()) ;
#17=(GEOMETRIC_REPRESENTATION_CONTEXT(3)GLOBAL_UNCERTAINTY_ASSIGNED_CONTEXT((#16))GLOBAL_UNIT_ASSIGNED_CONTEXT((#12,#13,#15))REPRESENTATION_CONTEXT(' ',' ')) ;
ENDSEC;
END-ISO-10303-21;
