ISO-10303-21;
HEADER;
FILE_DESCRIPTION(('CATIA V5 STEP Exchange'),'2;1');

FILE_NAME('I:\\isr\\design\\admin8\\users\\hala_s\\3105401.stp','2012-03-22T08:02:47+00:00',('none'),('none'),'CATIA Version 5 Release 19 SP 7 (IN-10)','CATIA V5 STEP AP214','none');

FILE_SCHEMA(('AUTOMOTIVE_DESIGN { 1 0 10303 214 1 1 1 1 }'));

ENDSEC;
/* file written by CATIA V5R19 */
DATA;
#5=PRODUCT('60937119_0 Assembly MTSRH 23-2','','',(#2)) ;
#2=PRODUCT_CONTEXT(' ',#1,'mechanical') ;
#1=APPLICATION_CONTEXT('automotive design') ;
#10=PRODUCT_DEFINITION('',' ',#6,#3) ;
#3=PRODUCT_DEFINITION_CONTEXT('part definition',#1,' ') ;
#11=PRODUCT_DEFINITION_SHAPE(' ',' ',#10) ;
#492=MECHANICAL_DESIGN_GEOMETRIC_PRESENTATION_REPRESENTATION(' ',(#30,#334),#17) ;
#20=SHAPE_REPRESENTATION(' ',(#19),#17) ;
#19=AXIS2_PLACEMENT_3D(' ',#18,$,$) ;
#35=AXIS2_PLACEMENT_3D('Cone Axis2P3D',#32,#33,#34) ;
#39=AXIS2_PLACEMENT_3D('Circle Axis2P3D',#37,#38,$) ;
#55=AXIS2_PLACEMENT_3D('Circle Axis2P3D',#53,#54,$) ;
#74=AXIS2_PLACEMENT_3D('Circle Axis2P3D',#72,#73,$) ;
#79=AXIS2_PLACEMENT_3D('Circle Axis2P3D',#77,#78,$) ;
#92=AXIS2_PLACEMENT_3D('Cylinder Axis2P3D',#89,#90,#91) ;
#103=AXIS2_PLACEMENT_3D('Circle Axis2P3D',#101,#102,$) ;
#122=AXIS2_PLACEMENT_3D('Circle Axis2P3D',#120,#121,$) ;
#135=AXIS2_PLACEMENT_3D('Cone Axis2P3D',#132,#133,#134) ;
#146=AXIS2_PLACEMENT_3D('Circle Axis2P3D',#144,#145,$) ;
#165=AXIS2_PLACEMENT_3D('Circle Axis2P3D',#163,#164,$) ;
#178=AXIS2_PLACEMENT_3D('Cone Axis2P3D',#175,#176,#177) ;
#182=AXIS2_PLACEMENT_3D('Circle Axis2P3D',#180,#181,$) ;
#198=AXIS2_PLACEMENT_3D('Circle Axis2P3D',#196,#197,$) ;
#217=AXIS2_PLACEMENT_3D('Circle Axis2P3D',#215,#216,$) ;
#222=AXIS2_PLACEMENT_3D('Circle Axis2P3D',#220,#221,$) ;
#235=AXIS2_PLACEMENT_3D('Cylinder Axis2P3D',#232,#233,#234) ;
#246=AXIS2_PLACEMENT_3D('Circle Axis2P3D',#244,#245,$) ;
#265=AXIS2_PLACEMENT_3D('Circle Axis2P3D',#263,#264,$) ;
#278=AXIS2_PLACEMENT_3D('Torus Axis2P3D',#275,#276,#277) ;
#282=AXIS2_PLACEMENT_3D('Circle Axis2P3D',#280,#281,$) ;
#287=AXIS2_PLACEMENT_3D('Circle Axis2P3D',#285,#286,$) ;
#307=AXIS2_PLACEMENT_3D('Plane Axis2P3D',#304,#305,#306) ;
#317=AXIS2_PLACEMENT_3D('Plane Axis2P3D',#314,#315,#316) ;
#339=AXIS2_PLACEMENT_3D('Cylinder Axis2P3D',#336,#337,#338) ;
#343=AXIS2_PLACEMENT_3D('Circle Axis2P3D',#341,#342,$) ;
#359=AXIS2_PLACEMENT_3D('Circle Axis2P3D',#357,#358,$) ;
#378=AXIS2_PLACEMENT_3D('Circle Axis2P3D',#376,#377,$) ;
#383=AXIS2_PLACEMENT_3D('Circle Axis2P3D',#381,#382,$) ;
#396=AXIS2_PLACEMENT_3D('Cylinder Axis2P3D',#393,#394,#395) ;
#400=AXIS2_PLACEMENT_3D('Circle Axis2P3D',#398,#399,$) ;
#416=AXIS2_PLACEMENT_3D('Circle Axis2P3D',#414,#415,$) ;
#435=AXIS2_PLACEMENT_3D('Circle Axis2P3D',#433,#434,$) ;
#440=AXIS2_PLACEMENT_3D('Circle Axis2P3D',#438,#439,$) ;
#453=AXIS2_PLACEMENT_3D('Plane Axis2P3D',#450,#451,#452) ;
#467=AXIS2_PLACEMENT_3D('Plane Axis2P3D',#464,#465,#466) ;
#481=AXIS2_PLACEMENT_3D('CIP',#478,#479,#480) ;
#487=AXIS2_PLACEMENT_3D('PCS',#484,#485,#486) ;
#491=AXIS2_PLACEMENT_3D('MCS',#488,#489,#490) ;
#18=CARTESIAN_POINT(' ',(0.,0.,0.)) ;
#32=CARTESIAN_POINT('Axis2P3D Location',(-3.26542443209E-015,0.,53.3284279902)) ;
#37=CARTESIAN_POINT('Axis2P3D Location',(-3.26542443209E-015,0.,53.3284279902)) ;
#41=CARTESIAN_POINT('Vertex',(4.87651220767,8.92639572093,53.3284279902)) ;
#43=CARTESIAN_POINT('Vertex',(-4.87651220767,-8.92639572093,53.3284279902)) ;
#46=CARTESIAN_POINT('Line Origine',(5.43466576476,9.948088954,54.492640532)) ;
#50=CARTESIAN_POINT('Vertex',(5.99281932185,10.9697821871,55.6568530738)) ;
#53=CARTESIAN_POINT('Axis2P3D Location',(-3.40799934837E-015,0.,55.6568530738)) ;
#57=CARTESIAN_POINT('Vertex',(-5.99281932185,-10.9697821871,55.6568530738)) ;
#60=CARTESIAN_POINT('Line Origine',(-5.43466576476,-9.948088954,54.492640532)) ;
#72=CARTESIAN_POINT('Axis2P3D Location',(-3.26542443209E-015,0.,53.3284279902)) ;
#77=CARTESIAN_POINT('Axis2P3D Location',(-3.40799934837E-015,0.,55.6568530738)) ;
#89=CARTESIAN_POINT('Axis2P3D Location',(-3.39839485087E-015,0.,55.4999997262)) ;
#94=CARTESIAN_POINT('Line Origine',(5.99281932185,10.9697821871,82.303428033)) ;
#98=CARTESIAN_POINT('Vertex',(5.99281932185,10.9697821871,108.950002992)) ;
#101=CARTESIAN_POINT('Axis2P3D Location',(-6.67126362157E-015,0.,108.950002992)) ;
#105=CARTESIAN_POINT('Vertex',(-5.99281932185,-10.9697821871,108.950002992)) ;
#108=CARTESIAN_POINT('Line Origine',(-5.99281932185,-10.9697821871,82.303428033)) ;
#120=CARTESIAN_POINT('Axis2P3D Location',(-6.67126362157E-015,0.,108.950002992)) ;
#132=CARTESIAN_POINT('Axis2P3D Location',(-6.76617353025E-015,0.,110.499999428)) ;
#137=CARTESIAN_POINT('Line Origine',(5.62126449086,10.289655631,109.72500121)) ;
#141=CARTESIAN_POINT('Vertex',(5.24970965987,9.60952907495,110.499999428)) ;
#144=CARTESIAN_POINT('Axis2P3D Location',(-6.76617353025E-015,0.,110.499999428)) ;
#148=CARTESIAN_POINT('Vertex',(-5.24970965987,-9.60952907495,110.499999428)) ;
#151=CARTESIAN_POINT('Line Origine',(-5.62126449086,-10.289655631,109.72500121)) ;
#163=CARTESIAN_POINT('Axis2P3D Location',(-6.76617353025E-015,0.,110.499999428)) ;
#175=CARTESIAN_POINT('Axis2P3D Location',(-3.0616171436E-017,0.,0.5000000238)) ;
#180=CARTESIAN_POINT('Axis2P3D Location',(-3.0616171436E-017,0.,0.5000000238)) ;
#184=CARTESIAN_POINT('Vertex',(4.07511685312,7.45945136417,0.5000000238)) ;
#186=CARTESIAN_POINT('Vertex',(-4.07511685312,-7.45945136417,0.5000000238)) ;
#189=CARTESIAN_POINT('Line Origine',(4.1949732574,7.67884704058,0.75000003565)) ;
#193=CARTESIAN_POINT('Vertex',(4.31482966168,7.89824271699,1.0000000475)) ;
#196=CARTESIAN_POINT('Axis2P3D Location',(-6.12323428659E-017,0.,1.0000000475)) ;
#200=CARTESIAN_POINT('Vertex',(-4.31482966168,-7.89824271699,1.0000000475)) ;
#203=CARTESIAN_POINT('Line Origine',(-4.1949732574,-7.67884704058,0.75000003565)) ;
#215=CARTESIAN_POINT('Axis2P3D Location',(-3.0616171436E-017,0.,0.5000000238)) ;
#220=CARTESIAN_POINT('Axis2P3D Location',(-6.12323428659E-017,0.,1.0000000475)) ;
#232=CARTESIAN_POINT('Axis2P3D Location',(-3.39839485087E-015,0.,55.4999997262)) ;
#237=CARTESIAN_POINT('Line Origine',(4.31482966168,7.89824271699,25.7500004082)) ;
#241=CARTESIAN_POINT('Vertex',(4.31482966168,7.89824271699,50.5000007689)) ;
#244=CARTESIAN_POINT('Axis2P3D Location',(-3.09223321493E-015,0.,50.5000007689)) ;
#248=CARTESIAN_POINT('Vertex',(-4.31482966168,-7.89824271699,50.5000007689)) ;
#251=CARTESIAN_POINT('Line Origine',(-4.31482966168,-7.89824271699,25.7500004082)) ;
#263=CARTESIAN_POINT('Axis2P3D Location',(-3.09223321493E-015,0.,50.5000007689)) ;
#275=CARTESIAN_POINT('Axis2P3D Location',(-3.09223314067E-015,0.,50.4999995562)) ;
#280=CARTESIAN_POINT('Axis2P3D Location',(6.23253190897,11.4085731345,50.4999995562)) ;
#285=CARTESIAN_POINT('Axis2P3D Location',(-6.23253190897,-11.4085731345,50.4999995562)) ;
#304=CARTESIAN_POINT('Axis2P3D Location',(-6.76617353025E-015,10.9500000254,110.499999428)) ;
#314=CARTESIAN_POINT('Axis2P3D Location',(-3.0616171436E-017,0.,0.5000000238)) ;
#336=CARTESIAN_POINT('Axis2P3D Location',(-8.26636580528E-016,0.,13.4999998547)) ;
#341=CARTESIAN_POINT('Axis2P3D Location',(0.,0.,0.)) ;
#345=CARTESIAN_POINT('Vertex',(5.51226136709,10.0901267513,-1.43882817744E-015)) ;
#347=CARTESIAN_POINT('Vertex',(-5.51226136709,-10.0901267513,-2.11388550136E-015)) ;
#350=CARTESIAN_POINT('Line Origine',(5.51226136709,10.0901267513,13.4999998554)) ;
#354=CARTESIAN_POINT('Vertex',(5.51226136709,10.0901267513,26.9999997109)) ;
#357=CARTESIAN_POINT('Axis2P3D Location',(-1.65327316114E-015,0.,26.9999997109)) ;
#361=CARTESIAN_POINT('Vertex',(-5.51226136709,-10.0901267513,26.9999997109)) ;
#364=CARTESIAN_POINT('Line Origine',(-5.51226136709,-10.0901267513,13.4999998554)) ;
#376=CARTESIAN_POINT('Axis2P3D Location',(0.,0.,0.)) ;
#381=CARTESIAN_POINT('Axis2P3D Location',(-1.65327316114E-015,0.,26.9999997109)) ;
#393=CARTESIAN_POINT('Axis2P3D Location',(-8.26636580528E-016,0.,13.4999998547)) ;
#398=CARTESIAN_POINT('Axis2P3D Location',(-1.65327316114E-015,0.,26.9999997109)) ;
#402=CARTESIAN_POINT('Vertex',(1.67242805834,3.06135902623,26.9999997109)) ;
#404=CARTESIAN_POINT('Vertex',(-1.67242805834,-3.06135902623,26.9999997109)) ;
#407=CARTESIAN_POINT('Line Origine',(1.67242805834,3.06135902623,13.4999998554)) ;
#411=CARTESIAN_POINT('Vertex',(1.67242805834,3.06135902623,1.02406683422E-016)) ;
#414=CARTESIAN_POINT('Axis2P3D Location',(0.,0.,0.)) ;
#418=CARTESIAN_POINT('Vertex',(-1.67242805834,-3.06135902623,-1.02406683422E-016)) ;
#421=CARTESIAN_POINT('Line Origine',(-1.67242805834,-3.06135902623,13.4999998554)) ;
#433=CARTESIAN_POINT('Axis2P3D Location',(-1.65327316114E-015,0.,26.9999997109)) ;
#438=CARTESIAN_POINT('Axis2P3D Location',(0.,0.,0.)) ;
#450=CARTESIAN_POINT('Axis2P3D Location',(-1.65327316114E-015,3.48840001975,26.9999997109)) ;
#464=CARTESIAN_POINT('Axis2P3D Location',(0.,11.4976381591,0.)) ;
#478=CARTESIAN_POINT('Axis2P3D Location',(0.,0.,0.)) ;
#484=CARTESIAN_POINT('Axis2P3D Location',(0.,0.,110.499999428)) ;
#488=CARTESIAN_POINT('Axis2P3D Location',(0.,0.,60.4999994278)) ;
#33=DIRECTION('Axis2P3D Direction',(-6.12323399574E-017,-0.,1.)) ;
#34=DIRECTION('Axis2P3D XDirection',(0.479425538604,0.87758256189,0.)) ;
#38=DIRECTION('Axis2P3D Direction',(-6.12323399574E-017,0.,1.)) ;
#47=DIRECTION('Vector Direction',(0.339005150303,0.620544765226,0.707106570765)) ;
#54=DIRECTION('Axis2P3D Direction',(-6.12323399574E-017,0.,1.)) ;
#61=DIRECTION('Vector Direction',(-0.339005150303,-0.620544765226,0.707106570765)) ;
#73=DIRECTION('Axis2P3D Direction',(-6.12323399574E-017,0.,1.)) ;
#78=DIRECTION('Axis2P3D Direction',(-6.12323399574E-017,0.,1.)) ;
#90=DIRECTION('Axis2P3D Direction',(6.12323399574E-017,0.,-1.)) ;
#91=DIRECTION('Axis2P3D XDirection',(0.479425538604,0.87758256189,2.93563475641E-017)) ;
#95=DIRECTION('Vector Direction',(6.66636084421E-017,0.,-1.)) ;
#102=DIRECTION('Axis2P3D Direction',(6.12323399574E-017,0.,-1.)) ;
#109=DIRECTION('Vector Direction',(6.66636084421E-017,0.,-1.)) ;
#121=DIRECTION('Axis2P3D Direction',(6.12323399574E-017,0.,-1.)) ;
#133=DIRECTION('Axis2P3D Direction',(6.12323399574E-017,0.,-1.)) ;
#134=DIRECTION('Axis2P3D XDirection',(0.479425538604,0.87758256189,0.)) ;
#138=DIRECTION('Vector Direction',(0.339005456796,0.620545326259,-0.707105931471)) ;
#145=DIRECTION('Axis2P3D Direction',(6.12323399574E-017,0.,-1.)) ;
#152=DIRECTION('Vector Direction',(-0.339005456796,-0.620545326259,-0.707105931471)) ;
#164=DIRECTION('Axis2P3D Direction',(6.12323399574E-017,0.,-1.)) ;
#176=DIRECTION('Axis2P3D Direction',(-6.12323399574E-017,-0.,1.)) ;
#177=DIRECTION('Axis2P3D XDirection',(0.479425538604,0.87758256189,0.)) ;
#181=DIRECTION('Axis2P3D Direction',(-6.12323399574E-017,0.,1.)) ;
#190=DIRECTION('Vector Direction',(0.339005069151,0.620544616679,0.707106740033)) ;
#197=DIRECTION('Axis2P3D Direction',(-6.12323399574E-017,0.,1.)) ;
#204=DIRECTION('Vector Direction',(-0.339005069151,-0.620544616679,0.707106740033)) ;
#216=DIRECTION('Axis2P3D Direction',(-6.12323399574E-017,0.,1.)) ;
#221=DIRECTION('Axis2P3D Direction',(-6.12323399574E-017,0.,1.)) ;
#233=DIRECTION('Axis2P3D Direction',(6.12323399574E-017,0.,-1.)) ;
#234=DIRECTION('Axis2P3D XDirection',(0.479425538604,0.87758256189,2.93563475641E-017)) ;
#238=DIRECTION('Vector Direction',(5.38289943489E-017,0.,-1.)) ;
#245=DIRECTION('Axis2P3D Direction',(6.12323399574E-017,0.,-1.)) ;
#252=DIRECTION('Vector Direction',(5.38289943489E-017,0.,-1.)) ;
#264=DIRECTION('Axis2P3D Direction',(6.12323399574E-017,0.,-1.)) ;
#276=DIRECTION('Axis2P3D Direction',(6.12323399574E-017,0.,-1.)) ;
#277=DIRECTION('Axis2P3D XDirection',(0.479425538604,0.87758256189,0.)) ;
#281=DIRECTION('Axis2P3D Direction',(-0.87758256189,0.479425538604,-5.37364337703E-017)) ;
#286=DIRECTION('Axis2P3D Direction',(0.87758256189,-0.479425538604,5.37364337703E-017)) ;
#305=DIRECTION('Axis2P3D Direction',(6.12323399574E-017,0.,-1.)) ;
#306=DIRECTION('Axis2P3D XDirection',(0.,1.,0.)) ;
#315=DIRECTION('Axis2P3D Direction',(6.12323399574E-017,0.,-1.)) ;
#316=DIRECTION('Axis2P3D XDirection',(0.,1.,0.)) ;
#337=DIRECTION('Axis2P3D Direction',(6.12323399574E-017,0.,-1.)) ;
#338=DIRECTION('Axis2P3D XDirection',(0.479425538604,0.87758256189,2.93563475641E-017)) ;
#342=DIRECTION('Axis2P3D Direction',(6.12323399574E-017,0.,-1.)) ;
#351=DIRECTION('Vector Direction',(6.57909947564E-017,0.,-1.)) ;
#358=DIRECTION('Axis2P3D Direction',(6.12323399574E-017,0.,-1.)) ;
#365=DIRECTION('Vector Direction',(6.57909947564E-017,0.,-1.)) ;
#377=DIRECTION('Axis2P3D Direction',(6.12323399574E-017,0.,-1.)) ;
#382=DIRECTION('Axis2P3D Direction',(6.12323399574E-017,0.,-1.)) ;
#394=DIRECTION('Axis2P3D Direction',(6.12323399574E-017,0.,-1.)) ;
#395=DIRECTION('Axis2P3D XDirection',(0.479425538604,0.87758256189,2.93563475641E-017)) ;
#399=DIRECTION('Axis2P3D Direction',(6.12323399574E-017,0.,-1.)) ;
#408=DIRECTION('Vector Direction',(5.75671204118E-017,0.,-1.)) ;
#415=DIRECTION('Axis2P3D Direction',(6.12323399574E-017,0.,-1.)) ;
#422=DIRECTION('Vector Direction',(5.75671204118E-017,0.,-1.)) ;
#434=DIRECTION('Axis2P3D Direction',(6.12323399574E-017,0.,-1.)) ;
#439=DIRECTION('Axis2P3D Direction',(6.12323399574E-017,0.,-1.)) ;
#451=DIRECTION('Axis2P3D Direction',(6.12323399574E-017,0.,-1.)) ;
#452=DIRECTION('Axis2P3D XDirection',(0.,1.,0.)) ;
#465=DIRECTION('Axis2P3D Direction',(6.12323399574E-017,0.,-1.)) ;
#466=DIRECTION('Axis2P3D XDirection',(0.,1.,0.)) ;
#479=DIRECTION('Axis2P3D Direction',(0.,0.,1.)) ;
#480=DIRECTION('Axis2P3D XDirection',(1.,0.,0.)) ;
#485=DIRECTION('Axis2P3D Direction',(0.,0.,1.)) ;
#486=DIRECTION('Axis2P3D XDirection',(1.,0.,0.)) ;
#489=DIRECTION('Axis2P3D Direction',(0.,0.,1.)) ;
#490=DIRECTION('Axis2P3D XDirection',(1.,0.,0.)) ;
#8=PRODUCT_RELATED_PRODUCT_CATEGORY('part',$,(#5)) ;
#7=PRODUCT_CATEGORY('part','specification') ;
#30=STYLED_ITEM(' ',(#29),#22) ;
#334=STYLED_ITEM(' ',(#333),#326) ;
#29=PRESENTATION_STYLE_ASSIGNMENT((#28)) ;
#333=PRESENTATION_STYLE_ASSIGNMENT((#332)) ;
#28=SURFACE_STYLE_USAGE(.BOTH.,#27) ;
#332=SURFACE_STYLE_USAGE(.BOTH.,#331) ;
#27=SURFACE_SIDE_STYLE(' ',(#26)) ;
#331=SURFACE_SIDE_STYLE(' ',(#330)) ;
#26=SURFACE_STYLE_FILL_AREA(#25) ;
#330=SURFACE_STYLE_FILL_AREA(#329) ;
#25=FILL_AREA_STYLE(' ',(#24)) ;
#329=FILL_AREA_STYLE(' ',(#328)) ;
#24=FILL_AREA_STYLE_COLOUR(' ',#23) ;
#328=FILL_AREA_STYLE_COLOUR(' ',#327) ;
#48=VECTOR('Line Direction',#47,1.) ;
#62=VECTOR('Line Direction',#61,1.) ;
#96=VECTOR('Line Direction',#95,1.) ;
#110=VECTOR('Line Direction',#109,1.) ;
#139=VECTOR('Line Direction',#138,1.) ;
#153=VECTOR('Line Direction',#152,1.) ;
#191=VECTOR('Line Direction',#190,1.) ;
#205=VECTOR('Line Direction',#204,1.) ;
#239=VECTOR('Line Direction',#238,1.) ;
#253=VECTOR('Line Direction',#252,1.) ;
#352=VECTOR('Line Direction',#351,1.) ;
#366=VECTOR('Line Direction',#365,1.) ;
#409=VECTOR('Line Direction',#408,1.) ;
#423=VECTOR('Line Direction',#422,1.) ;
#16=UNCERTAINTY_MEASURE_WITH_UNIT(LENGTH_MEASURE(0.005),#12,'distance_accuracy_value','CONFUSED CURVE UNCERTAINTY') ;
#325=SHAPE_REPRESENTATION_RELATIONSHIP(' ',' ',#20,#324) ;
#66=ORIENTED_EDGE('',*,*,#45,.F.) ;
#67=ORIENTED_EDGE('',*,*,#52,.T.) ;
#68=ORIENTED_EDGE('',*,*,#59,.T.) ;
#69=ORIENTED_EDGE('',*,*,#64,.F.) ;
#83=ORIENTED_EDGE('',*,*,#76,.F.) ;
#84=ORIENTED_EDGE('',*,*,#64,.T.) ;
#85=ORIENTED_EDGE('',*,*,#81,.T.) ;
#86=ORIENTED_EDGE('',*,*,#52,.F.) ;
#114=ORIENTED_EDGE('',*,*,#59,.F.) ;
#115=ORIENTED_EDGE('',*,*,#100,.T.) ;
#116=ORIENTED_EDGE('',*,*,#107,.T.) ;
#117=ORIENTED_EDGE('',*,*,#112,.F.) ;
#126=ORIENTED_EDGE('',*,*,#81,.F.) ;
#127=ORIENTED_EDGE('',*,*,#112,.T.) ;
#128=ORIENTED_EDGE('',*,*,#124,.T.) ;
#129=ORIENTED_EDGE('',*,*,#100,.F.) ;
#157=ORIENTED_EDGE('',*,*,#107,.F.) ;
#158=ORIENTED_EDGE('',*,*,#143,.T.) ;
#159=ORIENTED_EDGE('',*,*,#150,.T.) ;
#160=ORIENTED_EDGE('',*,*,#155,.F.) ;
#169=ORIENTED_EDGE('',*,*,#124,.F.) ;
#170=ORIENTED_EDGE('',*,*,#155,.T.) ;
#171=ORIENTED_EDGE('',*,*,#167,.T.) ;
#172=ORIENTED_EDGE('',*,*,#143,.F.) ;
#209=ORIENTED_EDGE('',*,*,#188,.F.) ;
#210=ORIENTED_EDGE('',*,*,#195,.T.) ;
#211=ORIENTED_EDGE('',*,*,#202,.T.) ;
#212=ORIENTED_EDGE('',*,*,#207,.F.) ;
#226=ORIENTED_EDGE('',*,*,#219,.F.) ;
#227=ORIENTED_EDGE('',*,*,#207,.T.) ;
#228=ORIENTED_EDGE('',*,*,#224,.T.) ;
#229=ORIENTED_EDGE('',*,*,#195,.F.) ;
#257=ORIENTED_EDGE('',*,*,#202,.F.) ;
#258=ORIENTED_EDGE('',*,*,#243,.T.) ;
#259=ORIENTED_EDGE('',*,*,#250,.T.) ;
#260=ORIENTED_EDGE('',*,*,#255,.F.) ;
#269=ORIENTED_EDGE('',*,*,#224,.F.) ;
#270=ORIENTED_EDGE('',*,*,#255,.T.) ;
#271=ORIENTED_EDGE('',*,*,#267,.T.) ;
#272=ORIENTED_EDGE('',*,*,#243,.F.) ;
#291=ORIENTED_EDGE('',*,*,#250,.F.) ;
#292=ORIENTED_EDGE('',*,*,#284,.T.) ;
#293=ORIENTED_EDGE('',*,*,#45,.T.) ;
#294=ORIENTED_EDGE('',*,*,#289,.F.) ;
#298=ORIENTED_EDGE('',*,*,#267,.F.) ;
#299=ORIENTED_EDGE('',*,*,#289,.T.) ;
#300=ORIENTED_EDGE('',*,*,#76,.T.) ;
#301=ORIENTED_EDGE('',*,*,#284,.F.) ;
#310=ORIENTED_EDGE('',*,*,#150,.F.) ;
#311=ORIENTED_EDGE('',*,*,#167,.F.) ;
#320=ORIENTED_EDGE('',*,*,#188,.T.) ;
#321=ORIENTED_EDGE('',*,*,#219,.T.) ;
#370=ORIENTED_EDGE('',*,*,#349,.F.) ;
#371=ORIENTED_EDGE('',*,*,#356,.T.) ;
#372=ORIENTED_EDGE('',*,*,#363,.T.) ;
#373=ORIENTED_EDGE('',*,*,#368,.F.) ;
#387=ORIENTED_EDGE('',*,*,#380,.F.) ;
#388=ORIENTED_EDGE('',*,*,#368,.T.) ;
#389=ORIENTED_EDGE('',*,*,#385,.T.) ;
#390=ORIENTED_EDGE('',*,*,#356,.F.) ;
#427=ORIENTED_EDGE('',*,*,#406,.F.) ;
#428=ORIENTED_EDGE('',*,*,#413,.T.) ;
#429=ORIENTED_EDGE('',*,*,#420,.T.) ;
#430=ORIENTED_EDGE('',*,*,#425,.F.) ;
#444=ORIENTED_EDGE('',*,*,#437,.F.) ;
#445=ORIENTED_EDGE('',*,*,#425,.T.) ;
#446=ORIENTED_EDGE('',*,*,#442,.T.) ;
#447=ORIENTED_EDGE('',*,*,#413,.F.) ;
#456=ORIENTED_EDGE('',*,*,#363,.F.) ;
#457=ORIENTED_EDGE('',*,*,#385,.F.) ;
#460=ORIENTED_EDGE('',*,*,#437,.T.) ;
#461=ORIENTED_EDGE('',*,*,#406,.T.) ;
#470=ORIENTED_EDGE('',*,*,#380,.T.) ;
#471=ORIENTED_EDGE('',*,*,#349,.T.) ;
#474=ORIENTED_EDGE('',*,*,#420,.F.) ;
#475=ORIENTED_EDGE('',*,*,#442,.F.) ;
#462=FACE_BOUND('',#459,.T.) ;
#476=FACE_BOUND('',#473,.T.) ;
#31=CLOSED_SHELL('Closed Shell',(#71,#88,#119,#131,#162,#174,#214,#231,#262,#274,#296,#303,#313,#323)) ;
#335=CLOSED_SHELL('Closed Shell',(#375,#392,#432,#449,#463,#477)) ;
#324=ADVANCED_BREP_SHAPE_REPRESENTATION('NONE',(#22,#326),#17) ;
#71=ADVANCED_FACE('NO_CUT',(#70),#36,.T.) ;
#88=ADVANCED_FACE('NO_CUT',(#87),#36,.T.) ;
#119=ADVANCED_FACE('NO_CUT',(#118),#93,.T.) ;
#131=ADVANCED_FACE('NO_CUT',(#130),#93,.T.) ;
#162=ADVANCED_FACE('NO_CUT',(#161),#136,.T.) ;
#174=ADVANCED_FACE('NO_CUT',(#173),#136,.T.) ;
#214=ADVANCED_FACE('NO_CUT',(#213),#179,.T.) ;
#231=ADVANCED_FACE('NO_CUT',(#230),#179,.T.) ;
#262=ADVANCED_FACE('NO_CUT',(#261),#236,.T.) ;
#274=ADVANCED_FACE('NO_CUT',(#273),#236,.T.) ;
#296=ADVANCED_FACE('NO_CUT',(#295),#279,.F.) ;
#303=ADVANCED_FACE('NO_CUT',(#302),#279,.F.) ;
#313=ADVANCED_FACE('NO_CUT',(#312),#308,.F.) ;
#323=ADVANCED_FACE('NO_CUT',(#322),#318,.T.) ;
#375=ADVANCED_FACE('CUT',(#374),#340,.T.) ;
#392=ADVANCED_FACE('CUT',(#391),#340,.T.) ;
#432=ADVANCED_FACE('CUT',(#431),#397,.F.) ;
#449=ADVANCED_FACE('CUT',(#448),#397,.F.) ;
#463=ADVANCED_FACE('CUT',(#458,#462),#454,.F.) ;
#477=ADVANCED_FACE('CUT',(#472,#476),#468,.T.) ;
#4=APPLICATION_PROTOCOL_DEFINITION('international standard','automotive_design',2001,#1) ;
#22=MANIFOLD_SOLID_BREP('NO_CUT',#31) ;
#326=MANIFOLD_SOLID_BREP('CUT',#335) ;
#40=CIRCLE('generated circle',#39,10.1715737169) ;
#56=CIRCLE('generated circle',#55,12.5000001863) ;
#75=CIRCLE('generated circle',#74,10.1715737169) ;
#80=CIRCLE('generated circle',#79,12.5000001863) ;
#104=CIRCLE('generated circle',#103,12.5000001863) ;
#123=CIRCLE('generated circle',#122,12.5000001863) ;
#147=CIRCLE('generated circle',#146,10.9500000254) ;
#166=CIRCLE('generated circle',#165,10.9500000254) ;
#183=CIRCLE('generated circle',#182,8.49999953065) ;
#199=CIRCLE('generated circle',#198,8.99999961255) ;
#218=CIRCLE('generated circle',#217,8.49999953065) ;
#223=CIRCLE('generated circle',#222,8.99999961255) ;
#247=CIRCLE('generated circle',#246,8.99999961255) ;
#266=CIRCLE('generated circle',#265,8.99999961255) ;
#283=CIRCLE('generated circle',#282,4.0000001937) ;
#288=CIRCLE('generated circle',#287,4.0000001937) ;
#344=CIRCLE('generated circle',#343,11.4976381591) ;
#360=CIRCLE('generated circle',#359,11.4976381591) ;
#379=CIRCLE('generated circle',#378,11.4976381591) ;
#384=CIRCLE('generated circle',#383,11.4976381591) ;
#401=CIRCLE('generated circle',#400,3.48840001975) ;
#417=CIRCLE('generated circle',#416,3.48840001975) ;
#436=CIRCLE('generated circle',#435,3.48840001975) ;
#441=CIRCLE('generated circle',#440,3.48840001975) ;
#23=COLOUR_RGB('Colour',0.498039215686,0.498039215686,0.498039215686) ;
#327=COLOUR_RGB('Colour',0.8,0.8,0.8) ;
#36=CONICAL_SURFACE('Cone',#35,10.1715737169,0.785398460979) ;
#136=CONICAL_SURFACE('Cone',#135,10.9500000254,0.785399365076) ;
#179=CONICAL_SURFACE('Cone',#178,8.49999953065,0.785398221597) ;
#482=CONSTRUCTIVE_GEOMETRY_REPRESENTATION('supplemental geometry',(#481,#487,#491),#17) ;
#483=CONSTRUCTIVE_GEOMETRY_REPRESENTATION_RELATIONSHIP('supplemental geometry','',#20,#482) ;
#93=CYLINDRICAL_SURFACE('generated cylinder',#92,12.5000001863) ;
#236=CYLINDRICAL_SURFACE('generated cylinder',#235,8.99999961255) ;
#340=CYLINDRICAL_SURFACE('generated cylinder',#339,11.4976381591) ;
#397=CYLINDRICAL_SURFACE('generated cylinder',#396,3.48840001975) ;
#279=TOROIDAL_SURFACE('homeo Torus',#278,12.9999998062,4.0000001937) ;
#45=EDGE_CURVE('',#42,#44,#40,.F.) ;
#52=EDGE_CURVE('',#42,#51,#49,.T.) ;
#59=EDGE_CURVE('',#51,#58,#56,.F.) ;
#64=EDGE_CURVE('',#44,#58,#63,.T.) ;
#76=EDGE_CURVE('',#44,#42,#75,.F.) ;
#81=EDGE_CURVE('',#58,#51,#80,.F.) ;
#100=EDGE_CURVE('',#51,#99,#97,.F.) ;
#107=EDGE_CURVE('',#99,#106,#104,.T.) ;
#112=EDGE_CURVE('',#58,#106,#111,.F.) ;
#124=EDGE_CURVE('',#106,#99,#123,.T.) ;
#143=EDGE_CURVE('',#99,#142,#140,.F.) ;
#150=EDGE_CURVE('',#142,#149,#147,.T.) ;
#155=EDGE_CURVE('',#106,#149,#154,.F.) ;
#167=EDGE_CURVE('',#149,#142,#166,.T.) ;
#188=EDGE_CURVE('',#185,#187,#183,.F.) ;
#195=EDGE_CURVE('',#185,#194,#192,.T.) ;
#202=EDGE_CURVE('',#194,#201,#199,.F.) ;
#207=EDGE_CURVE('',#187,#201,#206,.T.) ;
#219=EDGE_CURVE('',#187,#185,#218,.F.) ;
#224=EDGE_CURVE('',#201,#194,#223,.F.) ;
#243=EDGE_CURVE('',#194,#242,#240,.F.) ;
#250=EDGE_CURVE('',#242,#249,#247,.T.) ;
#255=EDGE_CURVE('',#201,#249,#254,.F.) ;
#267=EDGE_CURVE('',#249,#242,#266,.T.) ;
#284=EDGE_CURVE('',#242,#42,#283,.T.) ;
#289=EDGE_CURVE('',#249,#44,#288,.T.) ;
#349=EDGE_CURVE('',#346,#348,#344,.T.) ;
#356=EDGE_CURVE('',#346,#355,#353,.F.) ;
#363=EDGE_CURVE('',#355,#362,#360,.T.) ;
#368=EDGE_CURVE('',#348,#362,#367,.F.) ;
#380=EDGE_CURVE('',#348,#346,#379,.T.) ;
#385=EDGE_CURVE('',#362,#355,#384,.T.) ;
#406=EDGE_CURVE('',#403,#405,#401,.T.) ;
#413=EDGE_CURVE('',#403,#412,#410,.T.) ;
#420=EDGE_CURVE('',#412,#419,#417,.T.) ;
#425=EDGE_CURVE('',#405,#419,#424,.T.) ;
#437=EDGE_CURVE('',#405,#403,#436,.T.) ;
#442=EDGE_CURVE('',#419,#412,#441,.T.) ;
#65=EDGE_LOOP('',(#66,#67,#68,#69)) ;
#82=EDGE_LOOP('',(#83,#84,#85,#86)) ;
#113=EDGE_LOOP('',(#114,#115,#116,#117)) ;
#125=EDGE_LOOP('',(#126,#127,#128,#129)) ;
#156=EDGE_LOOP('',(#157,#158,#159,#160)) ;
#168=EDGE_LOOP('',(#169,#170,#171,#172)) ;
#208=EDGE_LOOP('',(#209,#210,#211,#212)) ;
#225=EDGE_LOOP('',(#226,#227,#228,#229)) ;
#256=EDGE_LOOP('',(#257,#258,#259,#260)) ;
#268=EDGE_LOOP('',(#269,#270,#271,#272)) ;
#290=EDGE_LOOP('',(#291,#292,#293,#294)) ;
#297=EDGE_LOOP('',(#298,#299,#300,#301)) ;
#309=EDGE_LOOP('',(#310,#311)) ;
#319=EDGE_LOOP('',(#320,#321)) ;
#369=EDGE_LOOP('',(#370,#371,#372,#373)) ;
#386=EDGE_LOOP('',(#387,#388,#389,#390)) ;
#426=EDGE_LOOP('',(#427,#428,#429,#430)) ;
#443=EDGE_LOOP('',(#444,#445,#446,#447)) ;
#455=EDGE_LOOP('',(#456,#457)) ;
#459=EDGE_LOOP('',(#460,#461)) ;
#469=EDGE_LOOP('',(#470,#471)) ;
#473=EDGE_LOOP('',(#474,#475)) ;
#70=FACE_OUTER_BOUND('',#65,.T.) ;
#87=FACE_OUTER_BOUND('',#82,.T.) ;
#118=FACE_OUTER_BOUND('',#113,.T.) ;
#130=FACE_OUTER_BOUND('',#125,.T.) ;
#161=FACE_OUTER_BOUND('',#156,.T.) ;
#173=FACE_OUTER_BOUND('',#168,.T.) ;
#213=FACE_OUTER_BOUND('',#208,.T.) ;
#230=FACE_OUTER_BOUND('',#225,.T.) ;
#261=FACE_OUTER_BOUND('',#256,.T.) ;
#273=FACE_OUTER_BOUND('',#268,.T.) ;
#295=FACE_OUTER_BOUND('',#290,.T.) ;
#302=FACE_OUTER_BOUND('',#297,.T.) ;
#312=FACE_OUTER_BOUND('',#309,.T.) ;
#322=FACE_OUTER_BOUND('',#319,.T.) ;
#374=FACE_OUTER_BOUND('',#369,.T.) ;
#391=FACE_OUTER_BOUND('',#386,.T.) ;
#431=FACE_OUTER_BOUND('',#426,.T.) ;
#448=FACE_OUTER_BOUND('',#443,.T.) ;
#458=FACE_OUTER_BOUND('',#455,.T.) ;
#472=FACE_OUTER_BOUND('',#469,.T.) ;
#49=LINE('Line',#46,#48) ;
#63=LINE('Line',#60,#62) ;
#97=LINE('Line',#94,#96) ;
#111=LINE('Line',#108,#110) ;
#140=LINE('Line',#137,#139) ;
#154=LINE('Line',#151,#153) ;
#192=LINE('Line',#189,#191) ;
#206=LINE('Line',#203,#205) ;
#240=LINE('Line',#237,#239) ;
#254=LINE('Line',#251,#253) ;
#353=LINE('Line',#350,#352) ;
#367=LINE('Line',#364,#366) ;
#410=LINE('Line',#407,#409) ;
#424=LINE('Line',#421,#423) ;
#308=PLANE('Plane',#307) ;
#318=PLANE('Plane',#317) ;
#454=PLANE('Plane',#453) ;
#468=PLANE('Plane',#467) ;
#14=PLANE_ANGLE_MEASURE_WITH_UNIT(PLANE_ANGLE_MEASURE(0.0174532925199),#13) ;
#9=PRODUCT_CATEGORY_RELATIONSHIP(' ',' ',#7,#8) ;
#6=PRODUCT_DEFINITION_FORMATION_WITH_SPECIFIED_SOURCE('',' ',#5,.NOT_KNOWN.) ;
#21=SHAPE_DEFINITION_REPRESENTATION(#11,#20) ;
#42=VERTEX_POINT('',#41) ;
#44=VERTEX_POINT('',#43) ;
#51=VERTEX_POINT('',#50) ;
#58=VERTEX_POINT('',#57) ;
#99=VERTEX_POINT('',#98) ;
#106=VERTEX_POINT('',#105) ;
#142=VERTEX_POINT('',#141) ;
#149=VERTEX_POINT('',#148) ;
#185=VERTEX_POINT('',#184) ;
#187=VERTEX_POINT('',#186) ;
#194=VERTEX_POINT('',#193) ;
#201=VERTEX_POINT('',#200) ;
#242=VERTEX_POINT('',#241) ;
#249=VERTEX_POINT('',#248) ;
#346=VERTEX_POINT('',#345) ;
#348=VERTEX_POINT('',#347) ;
#355=VERTEX_POINT('',#354) ;
#362=VERTEX_POINT('',#361) ;
#403=VERTEX_POINT('',#402) ;
#405=VERTEX_POINT('',#404) ;
#412=VERTEX_POINT('',#411) ;
#419=VERTEX_POINT('',#418) ;
#12=(LENGTH_UNIT()NAMED_UNIT(*)SI_UNIT(.MILLI.,.METRE.)) ;
#13=(NAMED_UNIT(*)PLANE_ANGLE_UNIT()SI_UNIT($,.RADIAN.)) ;
#15=(NAMED_UNIT(*)SI_UNIT($,.STERADIAN.)SOLID_ANGLE_UNIT()) ;
#17=(GEOMETRIC_REPRESENTATION_CONTEXT(3)GLOBAL_UNCERTAINTY_ASSIGNED_CONTEXT((#16))GLOBAL_UNIT_ASSIGNED_CONTEXT((#12,#13,#15))REPRESENTATION_CONTEXT(' ',' ')) ;
ENDSEC;
END-ISO-10303-21;
